  0
SECTION
  2
HEADER
  9
$ACADVER
  1
AC1027
  9
$ACADMAINTVER
 70
     8
  9
$DWGCODEPAGE
  3
ANSI_1252
  9
$REQUIREDVERSIONS
160
                 0
  9
$INSBASE
 10
0.0
 20
0.0
 30
0.0
  9
$EXTMIN
 10
-1550.274943024514
 20
-116.9999999999998
 30
0.0
  9
$EXTMAX
 10
-936.6749430245143
 20
422.0000000000002
 30
0.0
  9
$LIMMIN
 10
0.0
 20
0.0
  9
$LIMMAX
 10
420.0
 20
297.0
  9
$ORTHOMODE
 70
     0
  9
$REGENMODE
 70
     1
  9
$FILLMODE
 70
     1
  9
$QTEXTMODE
 70
     0
  9
$MIRRTEXT
 70
     0
  9
$LTSCALE
 40
1.0
  9
$ATTMODE
 70
     1
  9
$TEXTSIZE
 40
2.5
  9
$TRACEWID
 40
1.0
  9
$TEXTSTYLE
  7
Standard
  9
$CLAYER
  8
0
  9
$CELTYPE
  6
ByLayer
  9
$CECOLOR
 62
   256
  9
$CELTSCALE
 40
1.0
  9
$DISPSILH
 70
     0
  9
$DIMSCALE
 40
1.0
  9
$DIMASZ
 40
2.5
  9
$DIMEXO
 40
0.625
  9
$DIMDLI
 40
3.75
  9
$DIMRND
 40
0.0
  9
$DIMDLE
 40
0.0
  9
$DIMEXE
 40
1.25
  9
$DIMTP
 40
0.0
  9
$DIMTM
 40
0.0
  9
$DIMTXT
 40
2.5
  9
$DIMCEN
 40
2.5
  9
$DIMTSZ
 40
0.0
  9
$DIMTOL
 70
     0
  9
$DIMLIM
 70
     0
  9
$DIMTIH
 70
     0
  9
$DIMTOH
 70
     0
  9
$DIMSE1
 70
     0
  9
$DIMSE2
 70
     0
  9
$DIMTAD
 70
     1
  9
$DIMZIN
 70
     8
  9
$DIMBLK
  1

  9
$DIMASO
 70
     1
  9
$DIMSHO
 70
     1
  9
$DIMPOST
  1

  9
$DIMAPOST
  1

  9
$DIMALT
 70
     0
  9
$DIMALTD
 70
     3
  9
$DIMALTF
 40
0.03937007874016
  9
$DIMLFAC
 40
1.0
  9
$DIMTOFL
 70
     1
  9
$DIMTVP
 40
0.0
  9
$DIMTIX
 70
     0
  9
$DIMSOXD
 70
     0
  9
$DIMSAH
 70
     0
  9
$DIMBLK1
  1

  9
$DIMBLK2
  1

  9
$DIMSTYLE
  2
ISO-25
  9
$DIMCLRD
 70
     0
  9
$DIMCLRE
 70
     0
  9
$DIMCLRT
 70
     0
  9
$DIMTFAC
 40
1.0
  9
$DIMGAP
 40
0.625
  9
$DIMJUST
 70
     0
  9
$DIMSD1
 70
     0
  9
$DIMSD2
 70
     0
  9
$DIMTOLJ
 70
     0
  9
$DIMTZIN
 70
     8
  9
$DIMALTZ
 70
     0
  9
$DIMALTTZ
 70
     0
  9
$DIMUPT
 70
     0
  9
$DIMDEC
 70
     2
  9
$DIMTDEC
 70
     2
  9
$DIMALTU
 70
     2
  9
$DIMALTTD
 70
     3
  9
$DIMTXSTY
  7
Standard
  9
$DIMAUNIT
 70
     0
  9
$DIMADEC
 70
     0
  9
$DIMALTRND
 40
0.0
  9
$DIMAZIN
 70
     0
  9
$DIMDSEP
 70
    44
  9
$DIMATFIT
 70
     3
  9
$DIMFRAC
 70
     0
  9
$DIMLDRBLK
  1

  9
$DIMLUNIT
 70
     2
  9
$DIMLWD
 70
    -2
  9
$DIMLWE
 70
    -2
  9
$DIMTMOVE
 70
     0
  9
$DIMFXL
 40
1.0
  9
$DIMFXLON
 70
     0
  9
$DIMJOGANG
 40
0.7853981633974483
  9
$DIMTFILL
 70
     0
  9
$DIMTFILLCLR
 70
     0
  9
$DIMARCSYM
 70
     0
  9
$DIMLTYPE
  6

  9
$DIMLTEX1
  6

  9
$DIMLTEX2
  6

  9
$DIMTXTDIRECTION
 70
     0
  9
$LUNITS
 70
     2
  9
$LUPREC
 70
     3
  9
$SKETCHINC
 40
1.0
  9
$FILLETRAD
 40
10.0
  9
$AUNITS
 70
     0
  9
$AUPREC
 70
     0
  9
$MENU
  1
.
  9
$ELEVATION
 40
0.0
  9
$PELEVATION
 40
0.0
  9
$THICKNESS
 40
0.0
  9
$LIMCHECK
 70
     0
  9
$CHAMFERA
 40
10.0
  9
$CHAMFERB
 40
10.0
  9
$CHAMFERC
 40
20.0
  9
$CHAMFERD
 40
0.0
  9
$SKPOLY
 70
     0
  9
$TDCREATE
 40
2455022.67902618
  9
$TDUCREATE
 40
2455022.637359514
  9
$TDUPDATE
 40
2457543.714317129
  9
$TDUUPDATE
 40
2457543.672650463
  9
$TDINDWG
 40
0.0
  9
$TDUSRTIMER
 40
2457543.546597222
  9
$USRTIMER
 70
     1
  9
$ANGBASE
 50
0.0
  9
$ANGDIR
 70
     0
  9
$PDMODE
 70
     0
  9
$PDSIZE
 40
0.0
  9
$PLINEWID
 40
0.0
  9
$SPLFRAME
 70
     0
  9
$SPLINETYPE
 70
     6
  9
$SPLINESEGS
 70
     8
  9
$HANDSEED
  5
18D4
  9
$SURFTAB1
 70
     6
  9
$SURFTAB2
 70
     6
  9
$SURFTYPE
 70
     6
  9
$SURFU
 70
     6
  9
$SURFV
 70
     6
  9
$UCSBASE
  2

  9
$UCSNAME
  2

  9
$UCSORG
 10
0.0
 20
0.0
 30
0.0
  9
$UCSXDIR
 10
1.0
 20
0.0
 30
0.0
  9
$UCSYDIR
 10
0.0
 20
1.0
 30
0.0
  9
$UCSORTHOREF
  2

  9
$UCSORTHOVIEW
 70
     0
  9
$UCSORGTOP
 10
0.0
 20
0.0
 30
0.0
  9
$UCSORGBOTTOM
 10
0.0
 20
0.0
 30
0.0
  9
$UCSORGLEFT
 10
0.0
 20
0.0
 30
0.0
  9
$UCSORGRIGHT
 10
0.0
 20
0.0
 30
0.0
  9
$UCSORGFRONT
 10
0.0
 20
0.0
 30
0.0
  9
$UCSORGBACK
 10
0.0
 20
0.0
 30
0.0
  9
$PUCSBASE
  2

  9
$PUCSNAME
  2

  9
$PUCSORG
 10
0.0
 20
0.0
 30
0.0
  9
$PUCSXDIR
 10
1.0
 20
0.0
 30
0.0
  9
$PUCSYDIR
 10
0.0
 20
1.0
 30
0.0
  9
$PUCSORTHOREF
  2

  9
$PUCSORTHOVIEW
 70
     0
  9
$PUCSORGTOP
 10
0.0
 20
0.0
 30
0.0
  9
$PUCSORGBOTTOM
 10
0.0
 20
0.0
 30
0.0
  9
$PUCSORGLEFT
 10
0.0
 20
0.0
 30
0.0
  9
$PUCSORGRIGHT
 10
0.0
 20
0.0
 30
0.0
  9
$PUCSORGFRONT
 10
0.0
 20
0.0
 30
0.0
  9
$PUCSORGBACK
 10
0.0
 20
0.0
 30
0.0
  9
$USERI1
 70
     0
  9
$USERI2
 70
     0
  9
$USERI3
 70
     0
  9
$USERI4
 70
     0
  9
$USERI5
 70
     0
  9
$USERR1
 40
0.0
  9
$USERR2
 40
0.0
  9
$USERR3
 40
0.0
  9
$USERR4
 40
0.0
  9
$USERR5
 40
0.0
  9
$WORLDVIEW
 70
     1
  9
$SHADEDGE
 70
     3
  9
$SHADEDIF
 70
    70
  9
$TILEMODE
 70
     1
  9
$MAXACTVP
 70
    64
  9
$PINSBASE
 10
0.0
 20
0.0
 30
0.0
  9
$PLIMCHECK
 70
     0
  9
$PEXTMIN
 10
1.000000000000000E+20
 20
1.000000000000000E+20
 30
1.000000000000000E+20
  9
$PEXTMAX
 10
-1.000000000000000E+20
 20
-1.000000000000000E+20
 30
-1.000000000000000E+20
  9
$PLIMMIN
 10
0.0
 20
0.0
  9
$PLIMMAX
 10
0.0
 20
0.0
  9
$UNITMODE
 70
     0
  9
$VISRETAIN
 70
     1
  9
$PLINEGEN
 70
     0
  9
$PSLTSCALE
 70
     1
  9
$TREEDEPTH
 70
  3020
  9
$CMLSTYLE
  2
Standard
  9
$CMLJUST
 70
     0
  9
$CMLSCALE
 40
20.0
  9
$PROXYGRAPHICS
 70
     1
  9
$MEASUREMENT
 70
     1
  9
$CELWEIGHT
370
    -1
  9
$ENDCAPS
280
     0
  9
$JOINSTYLE
280
     0
  9
$LWDISPLAY
290
     0
  9
$INSUNITS
 70
     4
  9
$HYPERLINKBASE
  1

  9
$STYLESHEET
  1

  9
$XEDIT
290
     1
  9
$CEPSNTYPE
380
     0
  9
$PSTYLEMODE
290
     1
  9
$FINGERPRINTGUID
  2
{EC6BB858-51AA-46EC-B484-6C9CC7AB3E2E}
  9
$VERSIONGUID
  2
{FAEB1C32-E019-11D5-929B-00C0DF256EC4}
  9
$EXTNAMES
290
     1
  9
$PSVPSCALE
 40
0.0
  9
$OLESTARTUP
290
     0
  9
$SORTENTS
280
   127
  9
$INDEXCTL
280
     0
  9
$HIDETEXT
280
     1
  9
$XCLIPFRAME
280
     0
  9
$HALOGAP
280
     0
  9
$OBSCOLOR
 70
   257
  9
$OBSLTYPE
280
     0
  9
$INTERSECTIONDISPLAY
280
     0
  9
$INTERSECTIONCOLOR
 70
   257
  9
$DIMASSOC
280
     2
  9
$PROJECTNAME
  1

  9
$CAMERADISPLAY
290
     0
  9
$LENSLENGTH
 40
50.0
  9
$CAMERAHEIGHT
 40
0.0
  9
$STEPSPERSEC
 40
2.0
  9
$STEPSIZE
 40
6.0
  9
$3DDWFPREC
 40
2.0
  9
$PSOLWIDTH
 40
5.0
  9
$PSOLHEIGHT
 40
80.0
  9
$LOFTANG1
 40
1.570796326794897
  9
$LOFTANG2
 40
1.570796326794897
  9
$LOFTMAG1
 40
0.0
  9
$LOFTMAG2
 40
0.0
  9
$LOFTPARAM
 70
     7
  9
$LOFTNORMALS
280
     1
  9
$LATITUDE
 40
37.795
  9
$LONGITUDE
 40
-122.394
  9
$NORTHDIRECTION
 40
0.0
  9
$TIMEZONE
 70
 -8000
  9
$LIGHTGLYPHDISPLAY
280
     1
  9
$TILEMODELIGHTSYNCH
280
     1
  9
$SOLIDHIST
280
     1
  9
$SHOWHIST
280
     1
  9
$DWFFRAME
280
     2
  9
$DGNFRAME
280
     2
  9
$REALWORLDSCALE
290
     1
  9
$INTERFERECOLOR
 62
   256
  9
$CSHADOW
280
     0
  9
$SHADOWPLANELOCATION
 40
0.0
  0
ENDSEC
  0
SECTION
  2
CLASSES
  0
CLASS
  1
ACDBDICTIONARYWDFLT
  2
AcDbDictionaryWithDefault
  3
ObjectDBX Classes
 90
        0
 91
        5
280
     0
281
     0
  0
CLASS
  1
VISUALSTYLE
  2
AcDbVisualStyle
  3
ObjectDBX Classes
 90
     4095
 91
        5
280
     0
281
     0
  0
CLASS
  1
TABLESTYLE
  2
AcDbTableStyle
  3
ObjectDBX Classes
 90
     4095
 91
        5
280
     0
281
     0
  0
CLASS
  1
DICTIONARYVAR
  2
AcDbDictionaryVar
  3
ObjectDBX Classes
 90
        0
 91
        5
280
     0
281
     0
  0
CLASS
  1
SCALE
  2
AcDbScale
  3
ObjectDBX Classes
 90
     1153
 91
        5
280
     0
281
     0
  0
CLASS
  1
CELLSTYLEMAP
  2
AcDbCellStyleMap
  3
ObjectDBX Classes
 90
     1152
 91
        5
280
     0
281
     0
  0
CLASS
  1
RASTERVARIABLES
  2
AcDbRasterVariables
  3
ISM
 90
        0
 91
        5
280
     0
281
     0
  0
CLASS
  1
MATERIAL
  2
AcDbMaterial
  3
ObjectDBX Classes
 90
     1153
 91
        5
280
     0
281
     0
  0
CLASS
  1
SUN
  2
AcDbSun
  3
SCENEOE
 90
     1153
 91
        5
280
     0
281
     0
  0
CLASS
  1
MLEADERSTYLE
  2
AcDbMLeaderStyle
  3
ACDB_MLEADERSTYLE_CLASS
 90
     4095
 91
        5
280
     0
281
     0
  0
CLASS
  1
IMAGEDEF
  2
AcDbRasterImageDef
  3
ISM
 90
        0
 91
        4
280
     0
281
     0
  0
CLASS
  1
IMAGE
  2
AcDbRasterImage
  3
ISM
 90
      127
 91
        5
280
     0
281
     1
  0
CLASS
  1
IMAGEDEF_REACTOR
  2
AcDbRasterImageDefReactor
  3
ISM
 90
        1
 91
        4
280
     0
281
     0
  0
CLASS
  1
DIMASSOC
  2
AcDbDimAssoc
  3
"AcDbDimAssoc|Product Desc:     AcDim ARX App For Dimension|Company:          Autodesk, Inc.|WEB Address:      www.autodesk.com"
 90
        0
 91
        4
280
     0
281
     0
  0
ENDSEC
  0
SECTION
  2
TABLES
  0
TABLE
  2
VPORT
  5
8
330
0
100
AcDbSymbolTable
 70
     1
  0
VPORT
  5
29
330
8
100
AcDbSymbolTableRecord
100
AcDbViewportTableRecord
  2
*Active
 70
     0
 10
0.0
 20
0.0
 11
1.0
 21
1.0
 12
-840.0052425840227
 22
237.0542433715987
 13
0.0
 23
0.0
 14
10.0
 24
10.0
 15
10.0
 25
10.0
 16
0.0
 26
0.0
 36
1.0
 17
-134.1869158878508
 27
0.0
 37
0.0
 40
735.7241437548868
 41
1.716546762589928
 42
50.0
 43
0.0
 44
0.0
 50
0.0
 51
0.0
 71
    16
 72
  1000
 73
     1
 74
     3
 75
     0
 76
     0
 77
     0
 78
     0
281
     0
 65
     1
110
0.0
120
0.0
130
0.0
111
1.0
121
0.0
131
0.0
112
0.0
122
1.0
132
0.0
 79
     0
146
0.0
348
2F
 60
     3
 61
     5
292
     1
282
     1
141
0.0
142
0.0
 63
   256
361
80
  0
ENDTAB
  0
TABLE
  2
LTYPE
  5
5
330
0
100
AcDbSymbolTable
 70
     1
  0
LTYPE
  5
14
330
5
100
AcDbSymbolTableRecord
100
AcDbLinetypeTableRecord
  2
ByBlock
 70
     0
  3

 72
    65
 73
     0
 40
0.0
  0
LTYPE
  5
15
330
5
100
AcDbSymbolTableRecord
100
AcDbLinetypeTableRecord
  2
ByLayer
 70
     0
  3

 72
    65
 73
     0
 40
0.0
  0
LTYPE
  5
16
330
5
100
AcDbSymbolTableRecord
100
AcDbLinetypeTableRecord
  2
Continuous
 70
     0
  3
Solid line
 72
    65
 73
     0
 40
0.0
  0
ENDTAB
  0
TABLE
  2
LAYER
  5
2
102
{ACAD_XDICTIONARY
360
C1
102
}
330
0
100
AcDbSymbolTable
 70
     5
  0
LAYER
  5
10
330
2
100
AcDbSymbolTableRecord
100
AcDbLayerTableRecord
  2
0
 70
     0
 62
     7
  6
Continuous
370
    -3
390
F
347
75
348
0
  0
LAYER
  5
C4
330
2
100
AcDbSymbolTableRecord
100
AcDbLayerTableRecord
  2
ref
 70
     0
 62
     7
  6
Continuous
370
    -3
390
F
347
75
348
0
1001
AcAecLayerStandard
1000

1000

  0
LAYER
  5
11E
330
2
100
AcDbSymbolTableRecord
100
AcDbLayerTableRecord
  2
Defpoints
 70
     0
 62
     7
  6
Continuous
290
     0
370
    -3
390
F
347
75
348
0
  0
LAYER
  5
A18
330
2
100
AcDbSymbolTableRecord
100
AcDbLayerTableRecord
  2
1
 70
     0
 62
     5
  6
Continuous
370
    -3
390
F
347
75
348
0
1001
AcAecLayerStandard
1000

1000

  0
LAYER
  5
A1C
330
2
100
AcDbSymbolTableRecord
100
AcDbLayerTableRecord
  2
2
 70
     0
 62
     1
  6
Continuous
370
    -3
390
F
347
75
348
0
1001
AcAecLayerStandard
1000

1000

  0
ENDTAB
  0
TABLE
  2
STYLE
  5
3
330
0
100
AcDbSymbolTable
 70
     2
  0
STYLE
  5
11
330
3
100
AcDbSymbolTableRecord
100
AcDbTextStyleTableRecord
  2
Standard
 70
     0
 40
0.0
 41
1.0
 50
0.0
 71
     0
 42
2.5
  3
arial.ttf
  4

1001
ACAD
1000
Arial
1071
        0
  0
STYLE
  5
B8
330
3
100
AcDbSymbolTableRecord
100
AcDbTextStyleTableRecord
  2
Annotative
 70
     0
 40
0.0
 41
1.0
 50
0.0
 71
     0
 42
2.5
  3
arial.ttf
  4

1001
ACAD
1000
Arial
1071
        0
1001
AcadAnnotative
1000
AnnotativeData
1002
{
1070
     1
1070
     1
1002
}
  0
ENDTAB
  0
TABLE
  2
VIEW
  5
6
330
0
100
AcDbSymbolTable
 70
     0
  0
ENDTAB
  0
TABLE
  2
UCS
  5
7
330
0
100
AcDbSymbolTable
 70
     0
  0
ENDTAB
  0
TABLE
  2
APPID
  5
9
330
0
100
AcDbSymbolTable
 70
     3
  0
APPID
  5
12
330
9
100
AcDbSymbolTableRecord
100
AcDbRegAppTableRecord
  2
ACAD
 70
     0
  0
APPID
  5
B9
330
9
100
AcDbSymbolTableRecord
100
AcDbRegAppTableRecord
  2
AcadAnnotative
 70
     0
  0
APPID
  5
C5
330
9
100
AcDbSymbolTableRecord
100
AcDbRegAppTableRecord
  2
AcAecLayerStandard
 70
     0
  0
ENDTAB
  0
TABLE
  2
DIMSTYLE
  5
A
330
0
100
AcDbSymbolTable
 70
     2
100
AcDbDimStyleTable
  0
DIMSTYLE
105
27
330
A
100
AcDbSymbolTableRecord
100
AcDbDimStyleTableRecord
  2
ISO-25
 70
     0
 41
2.5
 42
0.625
 43
3.75
 44
1.25
 73
     0
 74
     0
 77
     1
 78
     8
140
2.5
141
2.5
143
0.03937007874016
147
0.625
171
     3
172
     1
178
     0
271
     2
272
     2
274
     3
278
    44
283
     0
284
     8
340
11
  0
DIMSTYLE
105
BA
330
A
100
AcDbSymbolTableRecord
100
AcDbDimStyleTableRecord
  2
Annotative
 70
     0
 40
0.0
 41
2.5
 42
0.625
 43
3.75
 44
1.25
 73
     0
 74
     0
 77
     1
 78
     8
140
2.5
141
2.5
143
0.03937007874016
147
0.625
171
     3
172
     1
178
     0
271
     2
272
     2
274
     3
278
    44
283
     0
284
     8
340
11
1001
AcadAnnotative
1000
AnnotativeData
1002
{
1070
     1
1070
     1
1002
}
  0
ENDTAB
  0
TABLE
  2
BLOCK_RECORD
  5
1
330
0
100
AcDbSymbolTable
 70
     3
  0
BLOCK_RECORD
  5
1F
330
1
100
AcDbSymbolTableRecord
100
AcDbBlockTableRecord
  2
*Model_Space
340
22
 70
     0
280
     1
281
     0
  0
BLOCK_RECORD
  5
1B
330
1
100
AcDbSymbolTableRecord
100
AcDbBlockTableRecord
  2
*Paper_Space
340
1E
 70
     0
280
     1
281
     0
  0
BLOCK_RECORD
  5
23
330
1
100
AcDbSymbolTableRecord
100
AcDbBlockTableRecord
  2
*Paper_Space0
340
26
 70
     0
280
     1
281
     0
  0
BLOCK_RECORD
  5
18C5
330
1
100
AcDbSymbolTableRecord
100
AcDbBlockTableRecord
  2
*D2
340
0
 70
     0
280
     1
281
     0
  0
ENDTAB
  0
ENDSEC
  0
SECTION
  2
BLOCKS
  0
BLOCK
  5
20
330
1F
100
AcDbEntity
  8
0
100
AcDbBlockBegin
  2
*Model_Space
 70
     0
 10
0.0
 20
0.0
 30
0.0
  3
*Model_Space
  1
*Model_Space
  0
ENDBLK
  5
21
330
1F
100
AcDbEntity
  8
0
100
AcDbBlockEnd
  0
BLOCK
  5
1C
330
1B
100
AcDbEntity
 67
     1
  8
0
100
AcDbBlockBegin
  2
*Paper_Space
 70
     0
 10
0.0
 20
0.0
 30
0.0
  3
*Paper_Space
  1
*Paper_Space
  0
ENDBLK
  5
1D
330
1B
100
AcDbEntity
 67
     1
  8
0
100
AcDbBlockEnd
  0
BLOCK
  5
24
330
23
100
AcDbEntity
  8
0
100
AcDbBlockBegin
  2
*Paper_Space0
 70
     0
 10
0.0
 20
0.0
 30
0.0
  3
*Paper_Space0
  1
*Paper_Space0
  0
ENDBLK
  5
25
330
23
100
AcDbEntity
  8
0
100
AcDbBlockEnd
  0
BLOCK
  5
18C6
330
18C5
100
AcDbEntity
  8
0
100
AcDbBlockBegin
  2
*D2
 70
     1
 10
0.0
 20
0.0
 30
0.0
  3
*D2
  1
*D2
  0
LINE
  5
18C8
330
18C5
100
AcDbEntity
  8
0
 62
     0
370
    -2
100
AcDbLine
 10
-1550.274943024514
 20
301.5250000000003
 30
0.0
 11
-1550.274943024514
 21
469.8105061115658
 31
0.0
  0
LINE
  5
18C9
330
18C5
100
AcDbEntity
  8
0
 62
     0
370
    -2
100
AcDbLine
 10
-936.6749430245143
 20
298.6250000000003
 30
0.0
 11
-936.6749430245143
 21
469.8105061115658
 31
0.0
  0
LINE
  5
18CA
330
18C5
100
AcDbEntity
  8
0
 62
     0
370
    -2
100
AcDbLine
 10
-1547.774943024514
 20
468.5605061115658
 30
0.0
 11
-939.1749430245143
 21
468.5605061115658
 31
0.0
  0
SOLID
  5
18CB
330
18C5
100
AcDbEntity
  8
0
 62
     0
100
AcDbTrace
 10
-1547.774943024514
 20
468.9771727782325
 30
0.0
 11
-1547.774943024514
 21
468.1438394448991
 31
0.0
 12
-1550.274943024514
 22
468.5605061115658
 32
0.0
 13
-1550.274943024514
 23
468.5605061115658
 33
0.0
  0
SOLID
  5
18CC
330
18C5
100
AcDbEntity
  8
0
 62
     0
100
AcDbTrace
 10
-939.1749430245143
 20
468.1438394448991
 30
0.0
 11
-939.1749430245143
 21
468.9771727782325
 31
0.0
 12
-936.6749430245143
 22
468.5605061115658
 32
0.0
 13
-936.6749430245143
 23
468.5605061115658
 33
0.0
  0
MTEXT
  5
18CD
330
18C5
100
AcDbEntity
  8
0
 62
     0
100
AcDbMText
 10
-1243.474943024514
 20
470.6878935604062
 30
0.0
 40
2.5
 41
0.0
 46
0.0
 71
     5
 72
     1
  1
613,6
 73
     1
 44
1.0
  0
POINT
  5
18CE
330
18C5
100
AcDbEntity
  8
Defpoints
 62
     0
100
AcDbPoint
 10
-1550.274943024514
 20
300.9000000000003
 30
0.0
  0
POINT
  5
18CF
330
18C5
100
AcDbEntity
  8
Defpoints
 62
     0
100
AcDbPoint
 10
-936.6749430245143
 20
298.0000000000003
 30
0.0
  0
POINT
  5
18D0
330
18C5
100
AcDbEntity
  8
Defpoints
 62
     0
100
AcDbPoint
 10
-936.6749430245143
 20
468.5605061115658
 30
0.0
  0
ENDBLK
  5
18C7
330
18C5
100
AcDbEntity
  8
0
100
AcDbBlockEnd
  0
ENDSEC
  0
SECTION
  2
ENTITIES
  0
CIRCLE
  5
11D
102
{ACAD_REACTORS
330
E75
102
}
330
1F
100
AcDbEntity
  8
0
100
AcDbCircle
 10
-1438.274943024514
 20
127.0279125812744
 30
0.0
 40
28.35
  0
LWPOLYLINE
  5
1D4
102
{ACAD_REACTORS
330
E75
102
}
330
1F
100
AcDbEntity
  8
0
100
AcDbPolyline
 90
        4
 70
     1
 43
0.0
 10
-1483.274943024514
 20
298.0000000000003
 10
-1483.274943024514
 20
3.000000000000171
 10
-1393.274943024514
 20
3.000000000000171
 10
-1393.274943024514
 20
298.0000000000003
  0
CIRCLE
  5
4AA
102
{ACAD_REACTORS
330
E75
102
}
330
1F
100
AcDbEntity
  8
0
100
AcDbCircle
 10
-1480.545128923794
 20
61.32256209610772
 30
0.0
 40
1.0
  0
CIRCLE
  5
4AB
102
{ACAD_REACTORS
330
E75
102
}
330
1F
100
AcDbEntity
  8
0
100
AcDbCircle
 10
-1475.545128923795
 20
61.32256209610772
 30
0.0
 40
1.0
  0
CIRCLE
  5
4AC
102
{ACAD_REACTORS
330
E75
102
}
330
1F
100
AcDbEntity
  8
0
100
AcDbCircle
 10
-1470.545128923795
 20
61.32256209610772
 30
0.0
 40
1.0
  0
CIRCLE
  5
4AD
102
{ACAD_REACTORS
330
E75
102
}
330
1F
100
AcDbEntity
  8
0
100
AcDbCircle
 10
-1465.545128923795
 20
61.32256209610774
 30
0.0
 40
1.0
  0
CIRCLE
  5
4AE
102
{ACAD_REACTORS
330
E75
102
}
330
1F
100
AcDbEntity
  8
0
100
AcDbCircle
 10
-1460.545128923795
 20
61.32256209610774
 30
0.0
 40
1.0
  0
CIRCLE
  5
4AF
102
{ACAD_REACTORS
330
E75
102
}
330
1F
100
AcDbEntity
  8
0
100
AcDbCircle
 10
-1455.545128923795
 20
61.32256209610774
 30
0.0
 40
1.0
  0
CIRCLE
  5
4B0
102
{ACAD_REACTORS
330
E75
102
}
330
1F
100
AcDbEntity
  8
0
100
AcDbCircle
 10
-1450.545128923795
 20
61.32256209610774
 30
0.0
 40
1.0
  0
CIRCLE
  5
4B1
102
{ACAD_REACTORS
330
E75
102
}
330
1F
100
AcDbEntity
  8
0
100
AcDbCircle
 10
-1445.545128923795
 20
61.32256209610774
 30
0.0
 40
1.0
  0
CIRCLE
  5
4B2
102
{ACAD_REACTORS
330
E75
102
}
330
1F
100
AcDbEntity
  8
0
100
AcDbCircle
 10
-1440.545128923795
 20
61.32256209610775
 30
0.0
 40
1.0
  0
CIRCLE
  5
4B3
102
{ACAD_REACTORS
330
E75
102
}
330
1F
100
AcDbEntity
  8
0
100
AcDbCircle
 10
-1435.545128923795
 20
61.32256209610775
 30
0.0
 40
1.0
  0
CIRCLE
  5
4B4
102
{ACAD_REACTORS
330
E75
102
}
330
1F
100
AcDbEntity
  8
0
100
AcDbCircle
 10
-1430.545128923795
 20
61.32256209610775
 30
0.0
 40
1.0
  0
CIRCLE
  5
4B5
102
{ACAD_REACTORS
330
E75
102
}
330
1F
100
AcDbEntity
  8
0
100
AcDbCircle
 10
-1425.545128923795
 20
61.32256209610775
 30
0.0
 40
1.0
  0
CIRCLE
  5
4B6
102
{ACAD_REACTORS
330
E75
102
}
330
1F
100
AcDbEntity
  8
0
100
AcDbCircle
 10
-1420.545128923795
 20
61.32256209610775
 30
0.0
 40
1.0
  0
CIRCLE
  5
4B7
102
{ACAD_REACTORS
330
E75
102
}
330
1F
100
AcDbEntity
  8
0
100
AcDbCircle
 10
-1415.545128923795
 20
61.32256209610775
 30
0.0
 40
1.0
  0
CIRCLE
  5
4B8
102
{ACAD_REACTORS
330
E75
102
}
330
1F
100
AcDbEntity
  8
0
100
AcDbCircle
 10
-1410.545128923795
 20
61.32256209610776
 30
0.0
 40
1.0
  0
CIRCLE
  5
4B9
102
{ACAD_REACTORS
330
E75
102
}
330
1F
100
AcDbEntity
  8
0
100
AcDbCircle
 10
-1405.545128923795
 20
61.32256209610776
 30
0.0
 40
1.0
  0
CIRCLE
  5
4BA
102
{ACAD_REACTORS
330
E75
102
}
330
1F
100
AcDbEntity
  8
0
100
AcDbCircle
 10
-1400.545128923795
 20
61.32256209610776
 30
0.0
 40
1.0
  0
CIRCLE
  5
4BB
102
{ACAD_REACTORS
330
E75
102
}
330
1F
100
AcDbEntity
  8
0
100
AcDbCircle
 10
-1395.545128923795
 20
61.32256209610776
 30
0.0
 40
1.0
  0
CIRCLE
  5
4BD
102
{ACAD_REACTORS
330
E75
102
}
330
1F
100
AcDbEntity
  8
0
100
AcDbCircle
 10
-1480.545128923794
 20
56.32256209610772
 30
0.0
 40
1.0
  0
CIRCLE
  5
4BE
102
{ACAD_REACTORS
330
E75
102
}
330
1F
100
AcDbEntity
  8
0
100
AcDbCircle
 10
-1475.545128923795
 20
56.32256209610772
 30
0.0
 40
1.0
  0
CIRCLE
  5
4BF
102
{ACAD_REACTORS
330
E75
102
}
330
1F
100
AcDbEntity
  8
0
100
AcDbCircle
 10
-1470.545128923795
 20
56.32256209610772
 30
0.0
 40
1.0
  0
CIRCLE
  5
4C0
102
{ACAD_REACTORS
330
E75
102
}
330
1F
100
AcDbEntity
  8
0
100
AcDbCircle
 10
-1465.545128923795
 20
56.32256209610774
 30
0.0
 40
1.0
  0
CIRCLE
  5
4C1
102
{ACAD_REACTORS
330
E75
102
}
330
1F
100
AcDbEntity
  8
0
100
AcDbCircle
 10
-1460.545128923795
 20
56.32256209610774
 30
0.0
 40
1.0
  0
CIRCLE
  5
4C2
102
{ACAD_REACTORS
330
E75
102
}
330
1F
100
AcDbEntity
  8
0
100
AcDbCircle
 10
-1455.545128923795
 20
56.32256209610774
 30
0.0
 40
1.0
  0
CIRCLE
  5
4C3
102
{ACAD_REACTORS
330
E75
102
}
330
1F
100
AcDbEntity
  8
0
100
AcDbCircle
 10
-1450.545128923795
 20
56.32256209610774
 30
0.0
 40
1.0
  0
CIRCLE
  5
4C4
102
{ACAD_REACTORS
330
E75
102
}
330
1F
100
AcDbEntity
  8
0
100
AcDbCircle
 10
-1445.545128923795
 20
56.32256209610775
 30
0.0
 40
1.0
  0
CIRCLE
  5
4C5
102
{ACAD_REACTORS
330
E75
102
}
330
1F
100
AcDbEntity
  8
0
100
AcDbCircle
 10
-1440.545128923795
 20
56.32256209610775
 30
0.0
 40
1.0
  0
CIRCLE
  5
4C6
102
{ACAD_REACTORS
330
E75
102
}
330
1F
100
AcDbEntity
  8
0
100
AcDbCircle
 10
-1435.545128923795
 20
56.32256209610775
 30
0.0
 40
1.0
  0
CIRCLE
  5
4C7
102
{ACAD_REACTORS
330
E75
102
}
330
1F
100
AcDbEntity
  8
0
100
AcDbCircle
 10
-1430.545128923795
 20
56.32256209610775
 30
0.0
 40
1.0
  0
CIRCLE
  5
4C8
102
{ACAD_REACTORS
330
E75
102
}
330
1F
100
AcDbEntity
  8
0
100
AcDbCircle
 10
-1425.545128923795
 20
56.32256209610775
 30
0.0
 40
1.0
  0
CIRCLE
  5
4C9
102
{ACAD_REACTORS
330
E75
102
}
330
1F
100
AcDbEntity
  8
0
100
AcDbCircle
 10
-1420.545128923795
 20
56.32256209610775
 30
0.0
 40
1.0
  0
CIRCLE
  5
4CA
102
{ACAD_REACTORS
330
E75
102
}
330
1F
100
AcDbEntity
  8
0
100
AcDbCircle
 10
-1415.545128923795
 20
56.32256209610775
 30
0.0
 40
1.0
  0
CIRCLE
  5
4CB
102
{ACAD_REACTORS
330
E75
102
}
330
1F
100
AcDbEntity
  8
0
100
AcDbCircle
 10
-1410.545128923795
 20
56.32256209610775
 30
0.0
 40
1.0
  0
CIRCLE
  5
4CC
102
{ACAD_REACTORS
330
E75
102
}
330
1F
100
AcDbEntity
  8
0
100
AcDbCircle
 10
-1405.545128923795
 20
56.32256209610776
 30
0.0
 40
1.0
  0
CIRCLE
  5
4CD
102
{ACAD_REACTORS
330
E75
102
}
330
1F
100
AcDbEntity
  8
0
100
AcDbCircle
 10
-1400.545128923795
 20
56.32256209610776
 30
0.0
 40
1.0
  0
CIRCLE
  5
4CE
102
{ACAD_REACTORS
330
E75
102
}
330
1F
100
AcDbEntity
  8
0
100
AcDbCircle
 10
-1395.545128923795
 20
56.32256209610776
 30
0.0
 40
1.0
  0
CIRCLE
  5
4D0
102
{ACAD_REACTORS
330
E75
102
}
330
1F
100
AcDbEntity
  8
0
100
AcDbCircle
 10
-1480.545128923794
 20
51.32256209610772
 30
0.0
 40
1.0
  0
CIRCLE
  5
4D1
102
{ACAD_REACTORS
330
E75
102
}
330
1F
100
AcDbEntity
  8
0
100
AcDbCircle
 10
-1475.545128923795
 20
51.32256209610772
 30
0.0
 40
1.0
  0
CIRCLE
  5
4D2
102
{ACAD_REACTORS
330
E75
102
}
330
1F
100
AcDbEntity
  8
0
100
AcDbCircle
 10
-1470.545128923795
 20
51.32256209610772
 30
0.0
 40
1.0
  0
CIRCLE
  5
4D3
102
{ACAD_REACTORS
330
E75
102
}
330
1F
100
AcDbEntity
  8
0
100
AcDbCircle
 10
-1465.545128923795
 20
51.32256209610774
 30
0.0
 40
1.0
  0
CIRCLE
  5
4D4
102
{ACAD_REACTORS
330
E75
102
}
330
1F
100
AcDbEntity
  8
0
100
AcDbCircle
 10
-1460.545128923795
 20
51.32256209610774
 30
0.0
 40
1.0
  0
CIRCLE
  5
4D5
102
{ACAD_REACTORS
330
E75
102
}
330
1F
100
AcDbEntity
  8
0
100
AcDbCircle
 10
-1455.545128923795
 20
51.32256209610774
 30
0.0
 40
1.0
  0
CIRCLE
  5
4D6
102
{ACAD_REACTORS
330
E75
102
}
330
1F
100
AcDbEntity
  8
0
100
AcDbCircle
 10
-1450.545128923795
 20
51.32256209610774
 30
0.0
 40
1.0
  0
CIRCLE
  5
4D7
102
{ACAD_REACTORS
330
E75
102
}
330
1F
100
AcDbEntity
  8
0
100
AcDbCircle
 10
-1445.545128923795
 20
51.32256209610775
 30
0.0
 40
1.0
  0
CIRCLE
  5
4D8
102
{ACAD_REACTORS
330
E75
102
}
330
1F
100
AcDbEntity
  8
0
100
AcDbCircle
 10
-1440.545128923795
 20
51.32256209610775
 30
0.0
 40
1.0
  0
CIRCLE
  5
4D9
102
{ACAD_REACTORS
330
E75
102
}
330
1F
100
AcDbEntity
  8
0
100
AcDbCircle
 10
-1435.545128923795
 20
51.32256209610775
 30
0.0
 40
1.0
  0
CIRCLE
  5
4DA
102
{ACAD_REACTORS
330
E75
102
}
330
1F
100
AcDbEntity
  8
0
100
AcDbCircle
 10
-1430.545128923795
 20
51.32256209610775
 30
0.0
 40
1.0
  0
CIRCLE
  5
4DB
102
{ACAD_REACTORS
330
E75
102
}
330
1F
100
AcDbEntity
  8
0
100
AcDbCircle
 10
-1425.545128923795
 20
51.32256209610775
 30
0.0
 40
1.0
  0
CIRCLE
  5
4DC
102
{ACAD_REACTORS
330
E75
102
}
330
1F
100
AcDbEntity
  8
0
100
AcDbCircle
 10
-1420.545128923795
 20
51.32256209610775
 30
0.0
 40
1.0
  0
CIRCLE
  5
4DD
102
{ACAD_REACTORS
330
E75
102
}
330
1F
100
AcDbEntity
  8
0
100
AcDbCircle
 10
-1415.545128923795
 20
51.32256209610775
 30
0.0
 40
1.0
  0
CIRCLE
  5
4DE
102
{ACAD_REACTORS
330
E75
102
}
330
1F
100
AcDbEntity
  8
0
100
AcDbCircle
 10
-1410.545128923795
 20
51.32256209610775
 30
0.0
 40
1.0
  0
CIRCLE
  5
4DF
102
{ACAD_REACTORS
330
E75
102
}
330
1F
100
AcDbEntity
  8
0
100
AcDbCircle
 10
-1405.545128923795
 20
51.32256209610776
 30
0.0
 40
1.0
  0
CIRCLE
  5
4E0
102
{ACAD_REACTORS
330
E75
102
}
330
1F
100
AcDbEntity
  8
0
100
AcDbCircle
 10
-1400.545128923795
 20
51.32256209610776
 30
0.0
 40
1.0
  0
CIRCLE
  5
4E1
102
{ACAD_REACTORS
330
E75
102
}
330
1F
100
AcDbEntity
  8
0
100
AcDbCircle
 10
-1395.545128923795
 20
51.32256209610776
 30
0.0
 40
1.0
  0
CIRCLE
  5
4E3
102
{ACAD_REACTORS
330
E75
102
}
330
1F
100
AcDbEntity
  8
0
100
AcDbCircle
 10
-1480.545128923794
 20
46.32256209610772
 30
0.0
 40
1.0
  0
CIRCLE
  5
4E4
102
{ACAD_REACTORS
330
E75
102
}
330
1F
100
AcDbEntity
  8
0
100
AcDbCircle
 10
-1475.545128923795
 20
46.32256209610772
 30
0.0
 40
1.0
  0
CIRCLE
  5
4E5
102
{ACAD_REACTORS
330
E75
102
}
330
1F
100
AcDbEntity
  8
0
100
AcDbCircle
 10
-1470.545128923795
 20
46.32256209610772
 30
0.0
 40
1.0
  0
CIRCLE
  5
4E6
102
{ACAD_REACTORS
330
E75
102
}
330
1F
100
AcDbEntity
  8
0
100
AcDbCircle
 10
-1465.545128923795
 20
46.32256209610772
 30
0.0
 40
1.0
  0
CIRCLE
  5
4E7
102
{ACAD_REACTORS
330
E75
102
}
330
1F
100
AcDbEntity
  8
0
100
AcDbCircle
 10
-1460.545128923795
 20
46.32256209610774
 30
0.0
 40
1.0
  0
CIRCLE
  5
4E8
102
{ACAD_REACTORS
330
E75
102
}
330
1F
100
AcDbEntity
  8
0
100
AcDbCircle
 10
-1455.545128923795
 20
46.32256209610774
 30
0.0
 40
1.0
  0
CIRCLE
  5
4E9
102
{ACAD_REACTORS
330
E75
102
}
330
1F
100
AcDbEntity
  8
0
100
AcDbCircle
 10
-1450.545128923795
 20
46.32256209610774
 30
0.0
 40
1.0
  0
CIRCLE
  5
4EA
102
{ACAD_REACTORS
330
E75
102
}
330
1F
100
AcDbEntity
  8
0
100
AcDbCircle
 10
-1445.545128923795
 20
46.32256209610775
 30
0.0
 40
1.0
  0
CIRCLE
  5
4EB
102
{ACAD_REACTORS
330
E75
102
}
330
1F
100
AcDbEntity
  8
0
100
AcDbCircle
 10
-1440.545128923795
 20
46.32256209610775
 30
0.0
 40
1.0
  0
CIRCLE
  5
4EC
102
{ACAD_REACTORS
330
E75
102
}
330
1F
100
AcDbEntity
  8
0
100
AcDbCircle
 10
-1435.545128923795
 20
46.32256209610775
 30
0.0
 40
1.0
  0
CIRCLE
  5
4ED
102
{ACAD_REACTORS
330
E75
102
}
330
1F
100
AcDbEntity
  8
0
100
AcDbCircle
 10
-1430.545128923795
 20
46.32256209610775
 30
0.0
 40
1.0
  0
CIRCLE
  5
4EE
102
{ACAD_REACTORS
330
E75
102
}
330
1F
100
AcDbEntity
  8
0
100
AcDbCircle
 10
-1425.545128923795
 20
46.32256209610775
 30
0.0
 40
1.0
  0
CIRCLE
  5
4EF
102
{ACAD_REACTORS
330
E75
102
}
330
1F
100
AcDbEntity
  8
0
100
AcDbCircle
 10
-1420.545128923795
 20
46.32256209610775
 30
0.0
 40
1.0
  0
CIRCLE
  5
4F0
102
{ACAD_REACTORS
330
E75
102
}
330
1F
100
AcDbEntity
  8
0
100
AcDbCircle
 10
-1415.545128923795
 20
46.32256209610775
 30
0.0
 40
1.0
  0
CIRCLE
  5
4F1
102
{ACAD_REACTORS
330
E75
102
}
330
1F
100
AcDbEntity
  8
0
100
AcDbCircle
 10
-1410.545128923795
 20
46.32256209610775
 30
0.0
 40
1.0
  0
CIRCLE
  5
4F2
102
{ACAD_REACTORS
330
E75
102
}
330
1F
100
AcDbEntity
  8
0
100
AcDbCircle
 10
-1405.545128923795
 20
46.32256209610776
 30
0.0
 40
1.0
  0
CIRCLE
  5
4F3
102
{ACAD_REACTORS
330
E75
102
}
330
1F
100
AcDbEntity
  8
0
100
AcDbCircle
 10
-1400.545128923795
 20
46.32256209610776
 30
0.0
 40
1.0
  0
CIRCLE
  5
4F4
102
{ACAD_REACTORS
330
E75
102
}
330
1F
100
AcDbEntity
  8
0
100
AcDbCircle
 10
-1395.545128923795
 20
46.32256209610776
 30
0.0
 40
1.0
  0
CIRCLE
  5
4F6
102
{ACAD_REACTORS
330
E75
102
}
330
1F
100
AcDbEntity
  8
0
100
AcDbCircle
 10
-1480.545128923794
 20
41.32256209610772
 30
0.0
 40
1.0
  0
CIRCLE
  5
4F7
102
{ACAD_REACTORS
330
E75
102
}
330
1F
100
AcDbEntity
  8
0
100
AcDbCircle
 10
-1475.545128923795
 20
41.32256209610772
 30
0.0
 40
1.0
  0
CIRCLE
  5
4F8
102
{ACAD_REACTORS
330
E75
102
}
330
1F
100
AcDbEntity
  8
0
100
AcDbCircle
 10
-1470.545128923795
 20
41.32256209610772
 30
0.0
 40
1.0
  0
CIRCLE
  5
4F9
102
{ACAD_REACTORS
330
E75
102
}
330
1F
100
AcDbEntity
  8
0
100
AcDbCircle
 10
-1465.545128923795
 20
41.32256209610772
 30
0.0
 40
1.0
  0
CIRCLE
  5
4FA
102
{ACAD_REACTORS
330
E75
102
}
330
1F
100
AcDbEntity
  8
0
100
AcDbCircle
 10
-1460.545128923795
 20
41.32256209610774
 30
0.0
 40
1.0
  0
CIRCLE
  5
4FB
102
{ACAD_REACTORS
330
E75
102
}
330
1F
100
AcDbEntity
  8
0
100
AcDbCircle
 10
-1455.545128923795
 20
41.32256209610774
 30
0.0
 40
1.0
  0
CIRCLE
  5
4FC
102
{ACAD_REACTORS
330
E75
102
}
330
1F
100
AcDbEntity
  8
0
100
AcDbCircle
 10
-1450.545128923795
 20
41.32256209610774
 30
0.0
 40
1.0
  0
CIRCLE
  5
4FD
102
{ACAD_REACTORS
330
E75
102
}
330
1F
100
AcDbEntity
  8
0
100
AcDbCircle
 10
-1445.545128923795
 20
41.32256209610775
 30
0.0
 40
1.0
  0
CIRCLE
  5
4FE
102
{ACAD_REACTORS
330
E75
102
}
330
1F
100
AcDbEntity
  8
0
100
AcDbCircle
 10
-1440.545128923795
 20
41.32256209610775
 30
0.0
 40
1.0
  0
CIRCLE
  5
4FF
102
{ACAD_REACTORS
330
E75
102
}
330
1F
100
AcDbEntity
  8
0
100
AcDbCircle
 10
-1435.545128923795
 20
41.32256209610775
 30
0.0
 40
1.0
  0
CIRCLE
  5
500
102
{ACAD_REACTORS
330
E75
102
}
330
1F
100
AcDbEntity
  8
0
100
AcDbCircle
 10
-1430.545128923795
 20
41.32256209610775
 30
0.0
 40
1.0
  0
CIRCLE
  5
501
102
{ACAD_REACTORS
330
E75
102
}
330
1F
100
AcDbEntity
  8
0
100
AcDbCircle
 10
-1425.545128923795
 20
41.32256209610775
 30
0.0
 40
1.0
  0
CIRCLE
  5
502
102
{ACAD_REACTORS
330
E75
102
}
330
1F
100
AcDbEntity
  8
0
100
AcDbCircle
 10
-1420.545128923795
 20
41.32256209610775
 30
0.0
 40
1.0
  0
CIRCLE
  5
503
102
{ACAD_REACTORS
330
E75
102
}
330
1F
100
AcDbEntity
  8
0
100
AcDbCircle
 10
-1415.545128923795
 20
41.32256209610775
 30
0.0
 40
1.0
  0
CIRCLE
  5
504
102
{ACAD_REACTORS
330
E75
102
}
330
1F
100
AcDbEntity
  8
0
100
AcDbCircle
 10
-1410.545128923795
 20
41.32256209610775
 30
0.0
 40
1.0
  0
CIRCLE
  5
505
102
{ACAD_REACTORS
330
E75
102
}
330
1F
100
AcDbEntity
  8
0
100
AcDbCircle
 10
-1405.545128923795
 20
41.32256209610776
 30
0.0
 40
1.0
  0
CIRCLE
  5
506
102
{ACAD_REACTORS
330
E75
102
}
330
1F
100
AcDbEntity
  8
0
100
AcDbCircle
 10
-1400.545128923795
 20
41.32256209610776
 30
0.0
 40
1.0
  0
CIRCLE
  5
507
102
{ACAD_REACTORS
330
E75
102
}
330
1F
100
AcDbEntity
  8
0
100
AcDbCircle
 10
-1395.545128923795
 20
41.32256209610776
 30
0.0
 40
1.0
  0
CIRCLE
  5
509
102
{ACAD_REACTORS
330
E75
102
}
330
1F
100
AcDbEntity
  8
0
100
AcDbCircle
 10
-1480.545128923794
 20
36.32256209610772
 30
0.0
 40
1.0
  0
CIRCLE
  5
50A
102
{ACAD_REACTORS
330
E75
102
}
330
1F
100
AcDbEntity
  8
0
100
AcDbCircle
 10
-1475.545128923795
 20
36.32256209610772
 30
0.0
 40
1.0
  0
CIRCLE
  5
50B
102
{ACAD_REACTORS
330
E75
102
}
330
1F
100
AcDbEntity
  8
0
100
AcDbCircle
 10
-1470.545128923795
 20
36.32256209610772
 30
0.0
 40
1.0
  0
CIRCLE
  5
50C
102
{ACAD_REACTORS
330
E75
102
}
330
1F
100
AcDbEntity
  8
0
100
AcDbCircle
 10
-1465.545128923795
 20
36.32256209610772
 30
0.0
 40
1.0
  0
CIRCLE
  5
50D
102
{ACAD_REACTORS
330
E75
102
}
330
1F
100
AcDbEntity
  8
0
100
AcDbCircle
 10
-1460.545128923795
 20
36.32256209610774
 30
0.0
 40
1.0
  0
CIRCLE
  5
50E
102
{ACAD_REACTORS
330
E75
102
}
330
1F
100
AcDbEntity
  8
0
100
AcDbCircle
 10
-1455.545128923795
 20
36.32256209610774
 30
0.0
 40
1.0
  0
CIRCLE
  5
50F
102
{ACAD_REACTORS
330
E75
102
}
330
1F
100
AcDbEntity
  8
0
100
AcDbCircle
 10
-1450.545128923795
 20
36.32256209610774
 30
0.0
 40
1.0
  0
CIRCLE
  5
510
102
{ACAD_REACTORS
330
E75
102
}
330
1F
100
AcDbEntity
  8
0
100
AcDbCircle
 10
-1445.545128923795
 20
36.32256209610775
 30
0.0
 40
1.0
  0
CIRCLE
  5
511
102
{ACAD_REACTORS
330
E75
102
}
330
1F
100
AcDbEntity
  8
0
100
AcDbCircle
 10
-1440.545128923795
 20
36.32256209610775
 30
0.0
 40
1.0
  0
CIRCLE
  5
512
102
{ACAD_REACTORS
330
E75
102
}
330
1F
100
AcDbEntity
  8
0
100
AcDbCircle
 10
-1435.545128923795
 20
36.32256209610775
 30
0.0
 40
1.0
  0
CIRCLE
  5
513
102
{ACAD_REACTORS
330
E75
102
}
330
1F
100
AcDbEntity
  8
0
100
AcDbCircle
 10
-1430.545128923795
 20
36.32256209610775
 30
0.0
 40
1.0
  0
CIRCLE
  5
514
102
{ACAD_REACTORS
330
E75
102
}
330
1F
100
AcDbEntity
  8
0
100
AcDbCircle
 10
-1425.545128923795
 20
36.32256209610775
 30
0.0
 40
1.0
  0
CIRCLE
  5
515
102
{ACAD_REACTORS
330
E75
102
}
330
1F
100
AcDbEntity
  8
0
100
AcDbCircle
 10
-1420.545128923795
 20
36.32256209610775
 30
0.0
 40
1.0
  0
CIRCLE
  5
516
102
{ACAD_REACTORS
330
E75
102
}
330
1F
100
AcDbEntity
  8
0
100
AcDbCircle
 10
-1415.545128923795
 20
36.32256209610775
 30
0.0
 40
1.0
  0
CIRCLE
  5
517
102
{ACAD_REACTORS
330
E75
102
}
330
1F
100
AcDbEntity
  8
0
100
AcDbCircle
 10
-1410.545128923795
 20
36.32256209610775
 30
0.0
 40
1.0
  0
CIRCLE
  5
518
102
{ACAD_REACTORS
330
E75
102
}
330
1F
100
AcDbEntity
  8
0
100
AcDbCircle
 10
-1405.545128923795
 20
36.32256209610776
 30
0.0
 40
1.0
  0
CIRCLE
  5
519
102
{ACAD_REACTORS
330
E75
102
}
330
1F
100
AcDbEntity
  8
0
100
AcDbCircle
 10
-1400.545128923795
 20
36.32256209610776
 30
0.0
 40
1.0
  0
CIRCLE
  5
51A
102
{ACAD_REACTORS
330
E75
102
}
330
1F
100
AcDbEntity
  8
0
100
AcDbCircle
 10
-1395.545128923795
 20
36.32256209610776
 30
0.0
 40
1.0
  0
CIRCLE
  5
51C
102
{ACAD_REACTORS
330
E75
102
}
330
1F
100
AcDbEntity
  8
0
100
AcDbCircle
 10
-1480.545128923794
 20
31.32256209610773
 30
0.0
 40
1.0
  0
CIRCLE
  5
51D
102
{ACAD_REACTORS
330
E75
102
}
330
1F
100
AcDbEntity
  8
0
100
AcDbCircle
 10
-1475.545128923795
 20
31.32256209610773
 30
0.0
 40
1.0
  0
CIRCLE
  5
51E
102
{ACAD_REACTORS
330
E75
102
}
330
1F
100
AcDbEntity
  8
0
100
AcDbCircle
 10
-1470.545128923795
 20
31.32256209610774
 30
0.0
 40
1.0
  0
CIRCLE
  5
51F
102
{ACAD_REACTORS
330
E75
102
}
330
1F
100
AcDbEntity
  8
0
100
AcDbCircle
 10
-1465.545128923795
 20
31.32256209610774
 30
0.0
 40
1.0
  0
CIRCLE
  5
520
102
{ACAD_REACTORS
330
E75
102
}
330
1F
100
AcDbEntity
  8
0
100
AcDbCircle
 10
-1460.545128923795
 20
31.32256209610774
 30
0.0
 40
1.0
  0
CIRCLE
  5
521
102
{ACAD_REACTORS
330
E75
102
}
330
1F
100
AcDbEntity
  8
0
100
AcDbCircle
 10
-1455.545128923795
 20
31.32256209610774
 30
0.0
 40
1.0
  0
CIRCLE
  5
522
102
{ACAD_REACTORS
330
E75
102
}
330
1F
100
AcDbEntity
  8
0
100
AcDbCircle
 10
-1450.545128923795
 20
31.32256209610774
 30
0.0
 40
1.0
  0
CIRCLE
  5
523
102
{ACAD_REACTORS
330
E75
102
}
330
1F
100
AcDbEntity
  8
0
100
AcDbCircle
 10
-1445.545128923795
 20
31.32256209610774
 30
0.0
 40
1.0
  0
CIRCLE
  5
524
102
{ACAD_REACTORS
330
E75
102
}
330
1F
100
AcDbEntity
  8
0
100
AcDbCircle
 10
-1440.545128923795
 20
31.32256209610775
 30
0.0
 40
1.0
  0
CIRCLE
  5
525
102
{ACAD_REACTORS
330
E75
102
}
330
1F
100
AcDbEntity
  8
0
100
AcDbCircle
 10
-1435.545128923795
 20
31.32256209610775
 30
0.0
 40
1.0
  0
CIRCLE
  5
526
102
{ACAD_REACTORS
330
E75
102
}
330
1F
100
AcDbEntity
  8
0
100
AcDbCircle
 10
-1430.545128923795
 20
31.32256209610775
 30
0.0
 40
1.0
  0
CIRCLE
  5
527
102
{ACAD_REACTORS
330
E75
102
}
330
1F
100
AcDbEntity
  8
0
100
AcDbCircle
 10
-1425.545128923795
 20
31.32256209610775
 30
0.0
 40
1.0
  0
CIRCLE
  5
528
102
{ACAD_REACTORS
330
E75
102
}
330
1F
100
AcDbEntity
  8
0
100
AcDbCircle
 10
-1420.545128923795
 20
31.32256209610775
 30
0.0
 40
1.0
  0
CIRCLE
  5
529
102
{ACAD_REACTORS
330
E75
102
}
330
1F
100
AcDbEntity
  8
0
100
AcDbCircle
 10
-1415.545128923795
 20
31.32256209610775
 30
0.0
 40
1.0
  0
CIRCLE
  5
52A
102
{ACAD_REACTORS
330
E75
102
}
330
1F
100
AcDbEntity
  8
0
100
AcDbCircle
 10
-1410.545128923795
 20
31.32256209610776
 30
0.0
 40
1.0
  0
CIRCLE
  5
52B
102
{ACAD_REACTORS
330
E75
102
}
330
1F
100
AcDbEntity
  8
0
100
AcDbCircle
 10
-1405.545128923795
 20
31.32256209610776
 30
0.0
 40
1.0
  0
CIRCLE
  5
52C
102
{ACAD_REACTORS
330
E75
102
}
330
1F
100
AcDbEntity
  8
0
100
AcDbCircle
 10
-1400.545128923795
 20
31.32256209610776
 30
0.0
 40
1.0
  0
CIRCLE
  5
52D
102
{ACAD_REACTORS
330
E75
102
}
330
1F
100
AcDbEntity
  8
0
100
AcDbCircle
 10
-1395.545128923795
 20
31.32256209610776
 30
0.0
 40
1.0
  0
CIRCLE
  5
52F
102
{ACAD_REACTORS
330
E75
102
}
330
1F
100
AcDbEntity
  8
0
100
AcDbCircle
 10
-1480.545128923794
 20
26.32256209610773
 30
0.0
 40
1.0
  0
CIRCLE
  5
530
102
{ACAD_REACTORS
330
E75
102
}
330
1F
100
AcDbEntity
  8
0
100
AcDbCircle
 10
-1475.545128923795
 20
26.32256209610773
 30
0.0
 40
1.0
  0
CIRCLE
  5
531
102
{ACAD_REACTORS
330
E75
102
}
330
1F
100
AcDbEntity
  8
0
100
AcDbCircle
 10
-1470.545128923795
 20
26.32256209610774
 30
0.0
 40
1.0
  0
CIRCLE
  5
532
102
{ACAD_REACTORS
330
E75
102
}
330
1F
100
AcDbEntity
  8
0
100
AcDbCircle
 10
-1465.545128923795
 20
26.32256209610774
 30
0.0
 40
1.0
  0
CIRCLE
  5
533
102
{ACAD_REACTORS
330
E75
102
}
330
1F
100
AcDbEntity
  8
0
100
AcDbCircle
 10
-1460.545128923795
 20
26.32256209610774
 30
0.0
 40
1.0
  0
CIRCLE
  5
534
102
{ACAD_REACTORS
330
E75
102
}
330
1F
100
AcDbEntity
  8
0
100
AcDbCircle
 10
-1455.545128923795
 20
26.32256209610774
 30
0.0
 40
1.0
  0
CIRCLE
  5
535
102
{ACAD_REACTORS
330
E75
102
}
330
1F
100
AcDbEntity
  8
0
100
AcDbCircle
 10
-1450.545128923795
 20
26.32256209610774
 30
0.0
 40
1.0
  0
CIRCLE
  5
536
102
{ACAD_REACTORS
330
E75
102
}
330
1F
100
AcDbEntity
  8
0
100
AcDbCircle
 10
-1445.545128923795
 20
26.32256209610774
 30
0.0
 40
1.0
  0
CIRCLE
  5
537
102
{ACAD_REACTORS
330
E75
102
}
330
1F
100
AcDbEntity
  8
0
100
AcDbCircle
 10
-1440.545128923795
 20
26.32256209610775
 30
0.0
 40
1.0
  0
CIRCLE
  5
538
102
{ACAD_REACTORS
330
E75
102
}
330
1F
100
AcDbEntity
  8
0
100
AcDbCircle
 10
-1435.545128923795
 20
26.32256209610775
 30
0.0
 40
1.0
  0
CIRCLE
  5
539
102
{ACAD_REACTORS
330
E75
102
}
330
1F
100
AcDbEntity
  8
0
100
AcDbCircle
 10
-1430.545128923795
 20
26.32256209610775
 30
0.0
 40
1.0
  0
CIRCLE
  5
53A
102
{ACAD_REACTORS
330
E75
102
}
330
1F
100
AcDbEntity
  8
0
100
AcDbCircle
 10
-1425.545128923795
 20
26.32256209610775
 30
0.0
 40
1.0
  0
CIRCLE
  5
53B
102
{ACAD_REACTORS
330
E75
102
}
330
1F
100
AcDbEntity
  8
0
100
AcDbCircle
 10
-1420.545128923795
 20
26.32256209610775
 30
0.0
 40
1.0
  0
CIRCLE
  5
53C
102
{ACAD_REACTORS
330
E75
102
}
330
1F
100
AcDbEntity
  8
0
100
AcDbCircle
 10
-1415.545128923795
 20
26.32256209610775
 30
0.0
 40
1.0
  0
CIRCLE
  5
53D
102
{ACAD_REACTORS
330
E75
102
}
330
1F
100
AcDbEntity
  8
0
100
AcDbCircle
 10
-1410.545128923795
 20
26.32256209610776
 30
0.0
 40
1.0
  0
CIRCLE
  5
53E
102
{ACAD_REACTORS
330
E75
102
}
330
1F
100
AcDbEntity
  8
0
100
AcDbCircle
 10
-1405.545128923795
 20
26.32256209610776
 30
0.0
 40
1.0
  0
CIRCLE
  5
53F
102
{ACAD_REACTORS
330
E75
102
}
330
1F
100
AcDbEntity
  8
0
100
AcDbCircle
 10
-1400.545128923795
 20
26.32256209610776
 30
0.0
 40
1.0
  0
CIRCLE
  5
540
102
{ACAD_REACTORS
330
E75
102
}
330
1F
100
AcDbEntity
  8
0
100
AcDbCircle
 10
-1395.545128923795
 20
26.32256209610776
 30
0.0
 40
1.0
  0
CIRCLE
  5
542
102
{ACAD_REACTORS
330
E75
102
}
330
1F
100
AcDbEntity
  8
0
100
AcDbCircle
 10
-1480.545128923794
 20
21.32256209610773
 30
0.0
 40
1.0
  0
CIRCLE
  5
543
102
{ACAD_REACTORS
330
E75
102
}
330
1F
100
AcDbEntity
  8
0
100
AcDbCircle
 10
-1475.545128923795
 20
21.32256209610773
 30
0.0
 40
1.0
  0
CIRCLE
  5
544
102
{ACAD_REACTORS
330
E75
102
}
330
1F
100
AcDbEntity
  8
0
100
AcDbCircle
 10
-1470.545128923795
 20
21.32256209610774
 30
0.0
 40
1.0
  0
CIRCLE
  5
545
102
{ACAD_REACTORS
330
E75
102
}
330
1F
100
AcDbEntity
  8
0
100
AcDbCircle
 10
-1465.545128923795
 20
21.32256209610774
 30
0.0
 40
1.0
  0
CIRCLE
  5
546
102
{ACAD_REACTORS
330
E75
102
}
330
1F
100
AcDbEntity
  8
0
100
AcDbCircle
 10
-1460.545128923795
 20
21.32256209610774
 30
0.0
 40
1.0
  0
CIRCLE
  5
547
102
{ACAD_REACTORS
330
E75
102
}
330
1F
100
AcDbEntity
  8
0
100
AcDbCircle
 10
-1455.545128923795
 20
21.32256209610774
 30
0.0
 40
1.0
  0
CIRCLE
  5
548
102
{ACAD_REACTORS
330
E75
102
}
330
1F
100
AcDbEntity
  8
0
100
AcDbCircle
 10
-1450.545128923795
 20
21.32256209610774
 30
0.0
 40
1.0
  0
CIRCLE
  5
549
102
{ACAD_REACTORS
330
E75
102
}
330
1F
100
AcDbEntity
  8
0
100
AcDbCircle
 10
-1445.545128923795
 20
21.32256209610774
 30
0.0
 40
1.0
  0
CIRCLE
  5
54A
102
{ACAD_REACTORS
330
E75
102
}
330
1F
100
AcDbEntity
  8
0
100
AcDbCircle
 10
-1440.545128923795
 20
21.32256209610775
 30
0.0
 40
1.0
  0
CIRCLE
  5
54B
102
{ACAD_REACTORS
330
E75
102
}
330
1F
100
AcDbEntity
  8
0
100
AcDbCircle
 10
-1435.545128923795
 20
21.32256209610775
 30
0.0
 40
1.0
  0
CIRCLE
  5
54C
102
{ACAD_REACTORS
330
E75
102
}
330
1F
100
AcDbEntity
  8
0
100
AcDbCircle
 10
-1430.545128923795
 20
21.32256209610775
 30
0.0
 40
1.0
  0
CIRCLE
  5
54D
102
{ACAD_REACTORS
330
E75
102
}
330
1F
100
AcDbEntity
  8
0
100
AcDbCircle
 10
-1425.545128923795
 20
21.32256209610775
 30
0.0
 40
1.0
  0
CIRCLE
  5
54E
102
{ACAD_REACTORS
330
E75
102
}
330
1F
100
AcDbEntity
  8
0
100
AcDbCircle
 10
-1420.545128923795
 20
21.32256209610775
 30
0.0
 40
1.0
  0
CIRCLE
  5
54F
102
{ACAD_REACTORS
330
E75
102
}
330
1F
100
AcDbEntity
  8
0
100
AcDbCircle
 10
-1415.545128923795
 20
21.32256209610775
 30
0.0
 40
1.0
  0
CIRCLE
  5
550
102
{ACAD_REACTORS
330
E75
102
}
330
1F
100
AcDbEntity
  8
0
100
AcDbCircle
 10
-1410.545128923795
 20
21.32256209610776
 30
0.0
 40
1.0
  0
CIRCLE
  5
551
102
{ACAD_REACTORS
330
E75
102
}
330
1F
100
AcDbEntity
  8
0
100
AcDbCircle
 10
-1405.545128923795
 20
21.32256209610776
 30
0.0
 40
1.0
  0
CIRCLE
  5
552
102
{ACAD_REACTORS
330
E75
102
}
330
1F
100
AcDbEntity
  8
0
100
AcDbCircle
 10
-1400.545128923795
 20
21.32256209610776
 30
0.0
 40
1.0
  0
CIRCLE
  5
553
102
{ACAD_REACTORS
330
E75
102
}
330
1F
100
AcDbEntity
  8
0
100
AcDbCircle
 10
-1395.545128923795
 20
21.32256209610776
 30
0.0
 40
1.0
  0
CIRCLE
  5
555
102
{ACAD_REACTORS
330
E75
102
}
330
1F
100
AcDbEntity
  8
0
100
AcDbCircle
 10
-1480.545128923794
 20
16.32256209610773
 30
0.0
 40
1.0
  0
CIRCLE
  5
556
102
{ACAD_REACTORS
330
E75
102
}
330
1F
100
AcDbEntity
  8
0
100
AcDbCircle
 10
-1475.545128923795
 20
16.32256209610773
 30
0.0
 40
1.0
  0
CIRCLE
  5
557
102
{ACAD_REACTORS
330
E75
102
}
330
1F
100
AcDbEntity
  8
0
100
AcDbCircle
 10
-1470.545128923795
 20
16.32256209610774
 30
0.0
 40
1.0
  0
CIRCLE
  5
558
102
{ACAD_REACTORS
330
E75
102
}
330
1F
100
AcDbEntity
  8
0
100
AcDbCircle
 10
-1465.545128923795
 20
16.32256209610774
 30
0.0
 40
1.0
  0
CIRCLE
  5
559
102
{ACAD_REACTORS
330
E75
102
}
330
1F
100
AcDbEntity
  8
0
100
AcDbCircle
 10
-1460.545128923795
 20
16.32256209610774
 30
0.0
 40
1.0
  0
CIRCLE
  5
55A
102
{ACAD_REACTORS
330
E75
102
}
330
1F
100
AcDbEntity
  8
0
100
AcDbCircle
 10
-1455.545128923795
 20
16.32256209610774
 30
0.0
 40
1.0
  0
CIRCLE
  5
55B
102
{ACAD_REACTORS
330
E75
102
}
330
1F
100
AcDbEntity
  8
0
100
AcDbCircle
 10
-1450.545128923795
 20
16.32256209610774
 30
0.0
 40
1.0
  0
CIRCLE
  5
55C
102
{ACAD_REACTORS
330
E75
102
}
330
1F
100
AcDbEntity
  8
0
100
AcDbCircle
 10
-1445.545128923795
 20
16.32256209610774
 30
0.0
 40
1.0
  0
CIRCLE
  5
55D
102
{ACAD_REACTORS
330
E75
102
}
330
1F
100
AcDbEntity
  8
0
100
AcDbCircle
 10
-1440.545128923795
 20
16.32256209610775
 30
0.0
 40
1.0
  0
CIRCLE
  5
55E
102
{ACAD_REACTORS
330
E75
102
}
330
1F
100
AcDbEntity
  8
0
100
AcDbCircle
 10
-1435.545128923795
 20
16.32256209610775
 30
0.0
 40
1.0
  0
CIRCLE
  5
55F
102
{ACAD_REACTORS
330
E75
102
}
330
1F
100
AcDbEntity
  8
0
100
AcDbCircle
 10
-1430.545128923795
 20
16.32256209610775
 30
0.0
 40
1.0
  0
CIRCLE
  5
560
102
{ACAD_REACTORS
330
E75
102
}
330
1F
100
AcDbEntity
  8
0
100
AcDbCircle
 10
-1425.545128923795
 20
16.32256209610775
 30
0.0
 40
1.0
  0
CIRCLE
  5
561
102
{ACAD_REACTORS
330
E75
102
}
330
1F
100
AcDbEntity
  8
0
100
AcDbCircle
 10
-1420.545128923795
 20
16.32256209610775
 30
0.0
 40
1.0
  0
CIRCLE
  5
562
102
{ACAD_REACTORS
330
E75
102
}
330
1F
100
AcDbEntity
  8
0
100
AcDbCircle
 10
-1415.545128923795
 20
16.32256209610775
 30
0.0
 40
1.0
  0
CIRCLE
  5
563
102
{ACAD_REACTORS
330
E75
102
}
330
1F
100
AcDbEntity
  8
0
100
AcDbCircle
 10
-1410.545128923795
 20
16.32256209610776
 30
0.0
 40
1.0
  0
CIRCLE
  5
564
102
{ACAD_REACTORS
330
E75
102
}
330
1F
100
AcDbEntity
  8
0
100
AcDbCircle
 10
-1405.545128923795
 20
16.32256209610776
 30
0.0
 40
1.0
  0
CIRCLE
  5
565
102
{ACAD_REACTORS
330
E75
102
}
330
1F
100
AcDbEntity
  8
0
100
AcDbCircle
 10
-1400.545128923795
 20
16.32256209610776
 30
0.0
 40
1.0
  0
CIRCLE
  5
566
102
{ACAD_REACTORS
330
E75
102
}
330
1F
100
AcDbEntity
  8
0
100
AcDbCircle
 10
-1395.545128923795
 20
16.32256209610776
 30
0.0
 40
1.0
  0
CIRCLE
  5
568
102
{ACAD_REACTORS
330
E75
102
}
330
1F
100
AcDbEntity
  8
0
100
AcDbCircle
 10
-1480.545128923794
 20
11.32256209610773
 30
0.0
 40
1.0
  0
CIRCLE
  5
569
102
{ACAD_REACTORS
330
E75
102
}
330
1F
100
AcDbEntity
  8
0
100
AcDbCircle
 10
-1475.545128923795
 20
11.32256209610773
 30
0.0
 40
1.0
  0
CIRCLE
  5
56A
102
{ACAD_REACTORS
330
E75
102
}
330
1F
100
AcDbEntity
  8
0
100
AcDbCircle
 10
-1470.545128923795
 20
11.32256209610774
 30
0.0
 40
1.0
  0
CIRCLE
  5
56B
102
{ACAD_REACTORS
330
E75
102
}
330
1F
100
AcDbEntity
  8
0
100
AcDbCircle
 10
-1465.545128923795
 20
11.32256209610774
 30
0.0
 40
1.0
  0
CIRCLE
  5
56C
102
{ACAD_REACTORS
330
E75
102
}
330
1F
100
AcDbEntity
  8
0
100
AcDbCircle
 10
-1460.545128923795
 20
11.32256209610774
 30
0.0
 40
1.0
  0
CIRCLE
  5
56D
102
{ACAD_REACTORS
330
E75
102
}
330
1F
100
AcDbEntity
  8
0
100
AcDbCircle
 10
-1455.545128923795
 20
11.32256209610774
 30
0.0
 40
1.0
  0
CIRCLE
  5
56E
102
{ACAD_REACTORS
330
E75
102
}
330
1F
100
AcDbEntity
  8
0
100
AcDbCircle
 10
-1450.545128923795
 20
11.32256209610774
 30
0.0
 40
1.0
  0
CIRCLE
  5
56F
102
{ACAD_REACTORS
330
E75
102
}
330
1F
100
AcDbEntity
  8
0
100
AcDbCircle
 10
-1445.545128923795
 20
11.32256209610774
 30
0.0
 40
1.0
  0
CIRCLE
  5
570
102
{ACAD_REACTORS
330
E75
102
}
330
1F
100
AcDbEntity
  8
0
100
AcDbCircle
 10
-1440.545128923795
 20
11.32256209610775
 30
0.0
 40
1.0
  0
CIRCLE
  5
571
102
{ACAD_REACTORS
330
E75
102
}
330
1F
100
AcDbEntity
  8
0
100
AcDbCircle
 10
-1435.545128923795
 20
11.32256209610775
 30
0.0
 40
1.0
  0
CIRCLE
  5
572
102
{ACAD_REACTORS
330
E75
102
}
330
1F
100
AcDbEntity
  8
0
100
AcDbCircle
 10
-1430.545128923795
 20
11.32256209610775
 30
0.0
 40
1.0
  0
CIRCLE
  5
573
102
{ACAD_REACTORS
330
E75
102
}
330
1F
100
AcDbEntity
  8
0
100
AcDbCircle
 10
-1425.545128923795
 20
11.32256209610775
 30
0.0
 40
1.0
  0
CIRCLE
  5
574
102
{ACAD_REACTORS
330
E75
102
}
330
1F
100
AcDbEntity
  8
0
100
AcDbCircle
 10
-1420.545128923795
 20
11.32256209610775
 30
0.0
 40
1.0
  0
CIRCLE
  5
575
102
{ACAD_REACTORS
330
E75
102
}
330
1F
100
AcDbEntity
  8
0
100
AcDbCircle
 10
-1415.545128923795
 20
11.32256209610775
 30
0.0
 40
1.0
  0
CIRCLE
  5
576
102
{ACAD_REACTORS
330
E75
102
}
330
1F
100
AcDbEntity
  8
0
100
AcDbCircle
 10
-1410.545128923795
 20
11.32256209610776
 30
0.0
 40
1.0
  0
CIRCLE
  5
577
102
{ACAD_REACTORS
330
E75
102
}
330
1F
100
AcDbEntity
  8
0
100
AcDbCircle
 10
-1405.545128923795
 20
11.32256209610776
 30
0.0
 40
1.0
  0
CIRCLE
  5
578
102
{ACAD_REACTORS
330
E75
102
}
330
1F
100
AcDbEntity
  8
0
100
AcDbCircle
 10
-1400.545128923795
 20
11.32256209610776
 30
0.0
 40
1.0
  0
CIRCLE
  5
579
102
{ACAD_REACTORS
330
E75
102
}
330
1F
100
AcDbEntity
  8
0
100
AcDbCircle
 10
-1395.545128923795
 20
11.32256209610776
 30
0.0
 40
1.0
  0
CIRCLE
  5
57B
102
{ACAD_REACTORS
330
E75
102
}
330
1F
100
AcDbEntity
  8
0
100
AcDbCircle
 10
-1480.545128923794
 20
6.322562096107731
 30
0.0
 40
1.0
  0
CIRCLE
  5
57C
102
{ACAD_REACTORS
330
E75
102
}
330
1F
100
AcDbEntity
  8
0
100
AcDbCircle
 10
-1475.545128923795
 20
6.322562096107731
 30
0.0
 40
1.0
  0
CIRCLE
  5
57D
102
{ACAD_REACTORS
330
E75
102
}
330
1F
100
AcDbEntity
  8
0
100
AcDbCircle
 10
-1470.545128923795
 20
6.322562096107738
 30
0.0
 40
1.0
  0
CIRCLE
  5
57E
102
{ACAD_REACTORS
330
E75
102
}
330
1F
100
AcDbEntity
  8
0
100
AcDbCircle
 10
-1465.545128923795
 20
6.322562096107738
 30
0.0
 40
1.0
  0
CIRCLE
  5
57F
102
{ACAD_REACTORS
330
E75
102
}
330
1F
100
AcDbEntity
  8
0
100
AcDbCircle
 10
-1460.545128923795
 20
6.322562096107738
 30
0.0
 40
1.0
  0
CIRCLE
  5
580
102
{ACAD_REACTORS
330
E75
102
}
330
1F
100
AcDbEntity
  8
0
100
AcDbCircle
 10
-1455.545128923795
 20
6.322562096107738
 30
0.0
 40
1.0
  0
CIRCLE
  5
581
102
{ACAD_REACTORS
330
E75
102
}
330
1F
100
AcDbEntity
  8
0
100
AcDbCircle
 10
-1450.545128923795
 20
6.322562096107738
 30
0.0
 40
1.0
  0
CIRCLE
  5
582
102
{ACAD_REACTORS
330
E75
102
}
330
1F
100
AcDbEntity
  8
0
100
AcDbCircle
 10
-1445.545128923795
 20
6.322562096107738
 30
0.0
 40
1.0
  0
CIRCLE
  5
583
102
{ACAD_REACTORS
330
E75
102
}
330
1F
100
AcDbEntity
  8
0
100
AcDbCircle
 10
-1440.545128923795
 20
6.322562096107744
 30
0.0
 40
1.0
  0
CIRCLE
  5
584
102
{ACAD_REACTORS
330
E75
102
}
330
1F
100
AcDbEntity
  8
0
100
AcDbCircle
 10
-1435.545128923795
 20
6.322562096107744
 30
0.0
 40
1.0
  0
CIRCLE
  5
585
102
{ACAD_REACTORS
330
E75
102
}
330
1F
100
AcDbEntity
  8
0
100
AcDbCircle
 10
-1430.545128923795
 20
6.322562096107744
 30
0.0
 40
1.0
  0
CIRCLE
  5
586
102
{ACAD_REACTORS
330
E75
102
}
330
1F
100
AcDbEntity
  8
0
100
AcDbCircle
 10
-1425.545128923795
 20
6.322562096107744
 30
0.0
 40
1.0
  0
CIRCLE
  5
587
102
{ACAD_REACTORS
330
E75
102
}
330
1F
100
AcDbEntity
  8
0
100
AcDbCircle
 10
-1420.545128923795
 20
6.322562096107744
 30
0.0
 40
1.0
  0
CIRCLE
  5
588
102
{ACAD_REACTORS
330
E75
102
}
330
1F
100
AcDbEntity
  8
0
100
AcDbCircle
 10
-1415.545128923795
 20
6.322562096107744
 30
0.0
 40
1.0
  0
CIRCLE
  5
589
102
{ACAD_REACTORS
330
E75
102
}
330
1F
100
AcDbEntity
  8
0
100
AcDbCircle
 10
-1410.545128923795
 20
6.322562096107752
 30
0.0
 40
1.0
  0
CIRCLE
  5
58A
102
{ACAD_REACTORS
330
E75
102
}
330
1F
100
AcDbEntity
  8
0
100
AcDbCircle
 10
-1405.545128923795
 20
6.322562096107752
 30
0.0
 40
1.0
  0
CIRCLE
  5
58B
102
{ACAD_REACTORS
330
E75
102
}
330
1F
100
AcDbEntity
  8
0
100
AcDbCircle
 10
-1400.545128923795
 20
6.322562096107752
 30
0.0
 40
1.0
  0
CIRCLE
  5
58C
102
{ACAD_REACTORS
330
E75
102
}
330
1F
100
AcDbEntity
  8
0
100
AcDbCircle
 10
-1395.545128923795
 20
6.322562096107752
 30
0.0
 40
1.0
  0
LWPOLYLINE
  5
62B
102
{ACAD_REACTORS
330
D53
102
}
330
1F
100
AcDbEntity
  8
0
100
AcDbPolyline
 90
        4
 70
     1
 43
0.0
 10
-1388.274943024514
 20
300.9000000000003
 10
-1388.274943024514
 20
0.1000000000001999
 10
-1326.274943024514
 20
0.1000000000001999
 10
-1326.274943024514
 20
300.9000000000003
  0
LWPOLYLINE
  5
652
102
{ACAD_REACTORS
330
D51
330
18C4
102
}
330
1F
100
AcDbEntity
  8
0
100
AcDbPolyline
 90
        4
 70
     1
 43
0.0
 10
-1550.274943024514
 20
300.9000000000003
 10
-1550.274943024514
 20
0.1000000000001999
 10
-1488.274943024514
 20
0.1000000000001933
 10
-1488.274943024514
 20
300.9000000000003
  0
LWPOLYLINE
  5
67C
102
{ACAD_REACTORS
330
CF6
102
}
330
1F
100
AcDbEntity
  8
0
100
AcDbPolyline
 90
        4
 70
     1
 43
0.0
 10
-1483.274943024514
 20
365.0000000000003
 10
-1483.274943024514
 20
303.0000000000003
 10
-1393.274943024514
 20
303.0000000000003
 10
-1393.274943024514
 20
365.0000000000003
  0
CIRCLE
  5
731
102
{ACAD_REACTORS
330
E75
102
}
330
1F
100
AcDbEntity
  8
0
100
AcDbCircle
 10
-1438.274943024514
 20
77.2009026152294
 30
0.0
 40
2.875
  0
LWPOLYLINE
  5
748
330
1F
100
AcDbEntity
  8
0
100
AcDbPolyline
 90
        8
 70
     1
 43
0.0
 10
-1441.274943024514
 20
-59.99999999999977
 10
-1441.274943024514
 20
-56.99999999999977
 42
-1.0
 10
-1435.274943024514
 20
-56.99999999999977
 10
-1435.274943024514
 20
-59.99999999999977
 10
-1393.274943024514
 20
-59.99999999999977
 10
-1393.274943024514
 20
-1.999999999999773
 10
-1483.274943024514
 20
-1.999999999999773
 10
-1483.274943024514
 20
-59.99999999999977
  0
LWPOLYLINE
  5
75D
102
{ACAD_REACTORS
330
CF5
330
18C4
102
}
330
1F
100
AcDbEntity
  8
0
100
AcDbPolyline
 90
        8
 70
     1
 43
0.0
 10
-983.6749430245142
 20
3.000000000000199
 10
-983.6749430245142
 20
6.000000000000199
 42
-1.0
 10
-977.6749430245142
 20
6.000000000000199
 10
-977.6749430245142
 20
3.000000000000199
 10
-936.6749430245143
 20
3.000000000000199
 10
-936.6749430245143
 20
298.0000000000003
 10
-1024.674943024514
 20
298.0000000000003
 10
-1024.674943024514
 20
3.000000000000199
  0
LWPOLYLINE
  5
796
102
{ACAD_REACTORS
330
CF5
102
}
330
1F
100
AcDbEntity
  8
0
  6
ByBlock
100
AcDbPolyline
 90
        4
 70
     1
 43
0.0
 10
-978.1749429951024
 20
247.3236020537669
 10
-978.1749429951024
 20
252.2011030545677
 42
0.9999999999999999
 10
-983.1749429951024
 20
252.2011030545677
 10
-983.1749429951024
 20
247.3236020537669
 42
2.848999599679677
  0
CIRCLE
  5
797
102
{ACAD_REACTORS
330
CF5
102
}
330
1F
100
AcDbEntity
  8
0
  6
ByBlock
100
AcDbCircle
 10
-980.6749430245142
 20
74.20090261522952
 30
0.0
 40
10.0
  0
LWPOLYLINE
  5
822
102
{ACAD_REACTORS
330
AD2
330
D51
102
}
330
1F
100
AcDbEntity
  8
0
100
AcDbPolyline
 90
        6
 70
     1
 43
0.0
 10
-1536.774943024514
 20
287.4630536754082
 42
-0.9999999999999999
 10
-1533.774943024514
 20
287.4630536754082
 10
-1533.774943024514
 20
267.4630536754082
 10
-1533.774943024513
 20
247.4630536754082
 42
-0.9999999999999999
 10
-1536.774943024513
 20
247.4630536754082
 10
-1536.774943024514
 20
267.4630536754082
  0
LWPOLYLINE
  5
84B
102
{ACAD_REACTORS
330
D53
102
}
330
1F
100
AcDbEntity
  8
0
  6
ByBlock
100
AcDbPolyline
 90
        4
 70
     1
 43
0.0
 10
-1360.274943024514
 20
116.4279125812743
 10
-1360.274943024514
 20
137.4279125812743
 10
-1354.274943024514
 20
137.4279125812743
 10
-1354.274943024514
 20
116.4279125812743
  0
LWPOLYLINE
  5
A7A
102
{ACAD_REACTORS
330
18BE
102
}
330
1F
100
AcDbEntity
  8
0
100
AcDbPolyline
 90
        4
 70
     1
 43
0.0
 10
-1119.674943024514
 20
298.0000000000003
 10
-1119.674943024514
 20
3.000000000000199
 10
-1029.674943024514
 20
3.000000000000199
 10
-1029.674943024514
 20
298.0000000000003
  0
LWPOLYLINE
  5
A7B
102
{ACAD_REACTORS
330
18BE
102
}
330
1F
100
AcDbEntity
  8
0
100
AcDbPolyline
 90
        4
 70
     1
 43
0.0
 10
-1113.674943024514
 20
292.0000000000003
 10
-1113.674943024514
 20
9.000000000000284
 10
-1035.674943024514
 20
9.000000000000199
 10
-1035.674943024514
 20
292.0000000000003
  0
CIRCLE
  5
AC4
102
{ACAD_REACTORS
330
E76
102
}
330
1F
100
AcDbEntity
  8
0
100
AcDbCircle
 10
-1273.374943024514
 20
256.4000000000002
 30
0.0
 40
28.35
  0
CIRCLE
  5
AC5
102
{ACAD_REACTORS
330
E76
102
}
330
1F
100
AcDbEntity
  8
0
100
AcDbCircle
 10
-1273.374943024514
 20
256.4000000000002
 30
0.0
 40
37.5
  0
LWPOLYLINE
  5
ACE
102
{ACAD_REACTORS
330
AD2
330
D51
102
}
330
1F
100
AcDbEntity
  8
0
100
AcDbPolyline
 90
        6
 70
     1
 43
0.0
 10
-1528.774943024514
 20
287.4630536754082
 42
-0.9999999999999999
 10
-1525.774943024514
 20
287.4630536754082
 10
-1525.774943024514
 20
267.4630536754082
 10
-1525.774943024513
 20
247.4630536754082
 42
-0.9999999999999999
 10
-1528.774943024513
 20
247.4630536754082
 10
-1528.774943024514
 20
267.4630536754082
  0
LWPOLYLINE
  5
ACF
102
{ACAD_REACTORS
330
AD2
330
D51
102
}
330
1F
100
AcDbEntity
  8
0
100
AcDbPolyline
 90
        6
 70
     1
 43
0.0
 10
-1520.774943024514
 20
287.4630536754082
 42
-0.9999999999999999
 10
-1517.774943024514
 20
287.4630536754082
 10
-1517.774943024514
 20
267.4630536754082
 10
-1517.774943024513
 20
247.4630536754082
 42
-0.9999999999999999
 10
-1520.774943024513
 20
247.4630536754082
 10
-1520.774943024514
 20
267.4630536754082
  0
LWPOLYLINE
  5
AD0
102
{ACAD_REACTORS
330
AD2
330
D51
102
}
330
1F
100
AcDbEntity
  8
0
100
AcDbPolyline
 90
        6
 70
     1
 43
0.0
 10
-1512.774943024514
 20
287.4630536754082
 42
-0.9999999999999999
 10
-1509.774943024514
 20
287.4630536754082
 10
-1509.774943024514
 20
267.4630536754082
 10
-1509.774943024513
 20
247.4630536754082
 42
-0.9999999999999999
 10
-1512.774943024513
 20
247.4630536754082
 10
-1512.774943024514
 20
267.4630536754082
  0
LWPOLYLINE
  5
AD1
102
{ACAD_REACTORS
330
AD2
330
D51
102
}
330
1F
100
AcDbEntity
  8
0
100
AcDbPolyline
 90
        6
 70
     1
 43
0.0
 10
-1504.774943024514
 20
287.4630536754082
 42
-0.9999999999999999
 10
-1501.774943024514
 20
287.4630536754082
 10
-1501.774943024514
 20
267.4630536754082
 10
-1501.774943024513
 20
247.4630536754082
 42
-0.9999999999999999
 10
-1504.774943024513
 20
247.4630536754082
 10
-1504.774943024514
 20
267.4630536754082
  0
LWPOLYLINE
  5
AFF
102
{ACAD_REACTORS
330
B04
330
D53
102
}
330
1F
100
AcDbEntity
  8
0
100
AcDbPolyline
 90
        6
 70
     1
 43
0.0
 10
-1374.774943024514
 20
287.9000000000003
 42
-0.9999999999999999
 10
-1371.774943024514
 20
287.9000000000003
 10
-1371.774943024514
 20
267.9000000000003
 10
-1371.774943024513
 20
247.9000000000002
 42
-0.9999999999999999
 10
-1374.774943024513
 20
247.9000000000002
 10
-1374.774943024514
 20
267.9000000000003
  0
LWPOLYLINE
  5
B00
102
{ACAD_REACTORS
330
B04
330
D53
102
}
330
1F
100
AcDbEntity
  8
0
100
AcDbPolyline
 90
        6
 70
     1
 43
0.0
 10
-1366.774943024514
 20
287.9000000000003
 42
-0.9999999999999999
 10
-1363.774943024514
 20
287.9000000000003
 10
-1363.774943024514
 20
267.9000000000003
 10
-1363.774943024513
 20
247.9000000000002
 42
-0.9999999999999999
 10
-1366.774943024513
 20
247.9000000000002
 10
-1366.774943024514
 20
267.9000000000003
  0
LWPOLYLINE
  5
B01
102
{ACAD_REACTORS
330
B04
330
D53
102
}
330
1F
100
AcDbEntity
  8
0
100
AcDbPolyline
 90
        6
 70
     1
 43
0.0
 10
-1358.774943024514
 20
287.9000000000003
 42
-0.9999999999999999
 10
-1355.774943024514
 20
287.9000000000003
 10
-1355.774943024514
 20
267.9000000000003
 10
-1355.774943024513
 20
247.9000000000002
 42
-0.9999999999999999
 10
-1358.774943024513
 20
247.9000000000002
 10
-1358.774943024514
 20
267.9000000000003
  0
LWPOLYLINE
  5
B02
102
{ACAD_REACTORS
330
B04
330
D53
102
}
330
1F
100
AcDbEntity
  8
0
100
AcDbPolyline
 90
        6
 70
     1
 43
0.0
 10
-1350.774943024514
 20
287.9000000000003
 42
-0.9999999999999999
 10
-1347.774943024514
 20
287.9000000000003
 10
-1347.774943024514
 20
267.9000000000003
 10
-1347.774943024513
 20
247.9000000000002
 42
-0.9999999999999999
 10
-1350.774943024513
 20
247.9000000000002
 10
-1350.774943024514
 20
267.9000000000003
  0
LWPOLYLINE
  5
B03
102
{ACAD_REACTORS
330
B04
330
D53
102
}
330
1F
100
AcDbEntity
  8
0
100
AcDbPolyline
 90
        6
 70
     1
 43
0.0
 10
-1342.774943024514
 20
287.9000000000003
 42
-0.9999999999999999
 10
-1339.774943024514
 20
287.9000000000003
 10
-1339.774943024514
 20
267.9000000000003
 10
-1339.774943024513
 20
247.9000000000002
 42
-0.9999999999999999
 10
-1342.774943024513
 20
247.9000000000002
 10
-1342.774943024514
 20
267.9000000000003
  0
LWPOLYLINE
  5
B05
102
{ACAD_REACTORS
330
B0F
330
D51
102
}
330
1F
100
AcDbEntity
  8
0
100
AcDbPolyline
 90
        6
 70
     1
 43
0.0
 10
-1536.774943024514
 20
13.3369463245923
 42
0.9999999999999999
 10
-1533.774943024514
 20
13.3369463245923
 10
-1533.774943024514
 20
33.3369463245923
 10
-1533.774943024513
 20
53.3369463245923
 42
0.9999999999999999
 10
-1536.774943024513
 20
53.3369463245923
 10
-1536.774943024514
 20
33.33694632459236
  0
LWPOLYLINE
  5
B06
102
{ACAD_REACTORS
330
B0F
330
D51
102
}
330
1F
100
AcDbEntity
  8
0
100
AcDbPolyline
 90
        6
 70
     1
 43
0.0
 10
-1528.774943024514
 20
13.3369463245923
 42
0.9999999999999999
 10
-1525.774943024514
 20
13.3369463245923
 10
-1525.774943024514
 20
33.3369463245923
 10
-1525.774943024513
 20
53.3369463245923
 42
0.9999999999999999
 10
-1528.774943024513
 20
53.3369463245923
 10
-1528.774943024514
 20
33.33694632459236
  0
LWPOLYLINE
  5
B07
102
{ACAD_REACTORS
330
B0F
330
D51
102
}
330
1F
100
AcDbEntity
  8
0
100
AcDbPolyline
 90
        6
 70
     1
 43
0.0
 10
-1520.774943024514
 20
13.3369463245923
 42
0.9999999999999999
 10
-1517.774943024514
 20
13.3369463245923
 10
-1517.774943024514
 20
33.3369463245923
 10
-1517.774943024513
 20
53.3369463245923
 42
0.9999999999999999
 10
-1520.774943024513
 20
53.3369463245923
 10
-1520.774943024514
 20
33.33694632459236
  0
LWPOLYLINE
  5
B08
102
{ACAD_REACTORS
330
B0F
330
D51
102
}
330
1F
100
AcDbEntity
  8
0
100
AcDbPolyline
 90
        6
 70
     1
 43
0.0
 10
-1512.774943024514
 20
13.3369463245923
 42
0.9999999999999999
 10
-1509.774943024514
 20
13.3369463245923
 10
-1509.774943024514
 20
33.3369463245923
 10
-1509.774943024513
 20
53.33694632459228
 42
0.9999999999999999
 10
-1512.774943024513
 20
53.3369463245923
 10
-1512.774943024514
 20
33.33694632459236
  0
LWPOLYLINE
  5
B09
102
{ACAD_REACTORS
330
B0F
330
D51
102
}
330
1F
100
AcDbEntity
  8
0
100
AcDbPolyline
 90
        6
 70
     1
 43
0.0
 10
-1504.774943024514
 20
13.3369463245923
 42
0.9999999999999999
 10
-1501.774943024514
 20
13.3369463245923
 10
-1501.774943024514
 20
33.3369463245923
 10
-1501.774943024513
 20
53.33694632459228
 42
0.9999999999999999
 10
-1504.774943024513
 20
53.33694632459228
 10
-1504.774943024514
 20
33.33694632459236
  0
LWPOLYLINE
  5
B0A
102
{ACAD_REACTORS
330
B10
330
D53
102
}
330
1F
100
AcDbEntity
  8
0
100
AcDbPolyline
 90
        6
 70
     1
 43
0.0
 10
-1374.774943024514
 20
12.9000000000002
 42
0.9999999999999999
 10
-1371.774943024514
 20
12.9000000000002
 10
-1371.774943024514
 20
32.9000000000002
 10
-1371.774943024513
 20
52.90000000000023
 42
0.9999999999999999
 10
-1374.774943024513
 20
52.90000000000023
 10
-1374.774943024514
 20
32.90000000000026
  0
LWPOLYLINE
  5
B0B
102
{ACAD_REACTORS
330
B10
330
D53
102
}
330
1F
100
AcDbEntity
  8
0
100
AcDbPolyline
 90
        6
 70
     1
 43
0.0
 10
-1366.774943024514
 20
12.9000000000002
 42
0.9999999999999999
 10
-1363.774943024514
 20
12.9000000000002
 10
-1363.774943024514
 20
32.9000000000002
 10
-1363.774943024513
 20
52.9000000000002
 42
0.9999999999999999
 10
-1366.774943024513
 20
52.9000000000002
 10
-1366.774943024514
 20
32.90000000000026
  0
LWPOLYLINE
  5
B0C
102
{ACAD_REACTORS
330
B10
330
D53
102
}
330
1F
100
AcDbEntity
  8
0
100
AcDbPolyline
 90
        6
 70
     1
 43
0.0
 10
-1358.774943024514
 20
12.9000000000002
 42
0.9999999999999999
 10
-1355.774943024514
 20
12.9000000000002
 10
-1355.774943024514
 20
32.9000000000002
 10
-1355.774943024513
 20
52.9000000000002
 42
0.9999999999999999
 10
-1358.774943024513
 20
52.9000000000002
 10
-1358.774943024514
 20
32.90000000000026
  0
LWPOLYLINE
  5
B0D
102
{ACAD_REACTORS
330
B10
330
D53
102
}
330
1F
100
AcDbEntity
  8
0
100
AcDbPolyline
 90
        6
 70
     1
 43
0.0
 10
-1350.774943024514
 20
12.9000000000002
 42
0.9999999999999999
 10
-1347.774943024514
 20
12.9000000000002
 10
-1347.774943024514
 20
32.9000000000002
 10
-1347.774943024513
 20
52.9000000000002
 42
0.9999999999999999
 10
-1350.774943024513
 20
52.9000000000002
 10
-1350.774943024514
 20
32.90000000000026
  0
LWPOLYLINE
  5
B0E
102
{ACAD_REACTORS
330
B10
330
D53
102
}
330
1F
100
AcDbEntity
  8
0
100
AcDbPolyline
 90
        6
 70
     1
 43
0.0
 10
-1342.774943024514
 20
12.9000000000002
 42
0.9999999999999999
 10
-1339.774943024514
 20
12.9000000000002
 10
-1339.774943024514
 20
32.9000000000002
 10
-1339.774943024513
 20
52.9000000000002
 42
0.9999999999999999
 10
-1342.774943024513
 20
52.9000000000002
 10
-1342.774943024514
 20
32.90000000000026
  0
LWPOLYLINE
  5
B39
102
{ACAD_REACTORS
330
B3B
102
}
330
1F
100
AcDbEntity
  8
0
100
AcDbPolyline
 90
        4
 70
     1
 43
0.0
 10
-1220.474943024514
 20
300.9000000000003
 10
-1220.474943024514
 20
0.1000000000001933
 10
-1124.674943024514
 20
0.1000000000001933
 10
-1124.674943024514
 20
300.9000000000003
  0
LWPOLYLINE
  5
B3A
102
{ACAD_REACTORS
330
B3B
102
}
330
1F
100
AcDbEntity
  8
0
100
AcDbPolyline
 90
        4
 70
     1
 43
0.0
 10
-1211.574943024514
 20
292.0000000000001
 10
-1211.574943024514
 20
9.00000000000017
 10
-1133.574943024514
 20
9.00000000000017
 10
-1133.574943024514
 20
292.0000000000003
  0
LWPOLYLINE
  5
B8C
330
1F
100
AcDbEntity
  8
0
100
AcDbPolyline
 90
        4
 70
     1
 43
0.0
 10
-1321.274943024514
 20
300.9000000000003
 10
-1321.274943024514
 20
0.1000000000001933
 10
-1225.474943024514
 20
0.1000000000001933
 10
-1225.474943024514
 20
300.9000000000003
  0
LWPOLYLINE
  5
B9F
330
1F
100
AcDbEntity
  8
0
100
AcDbPolyline
 90
        4
 70
     0
 43
0.0
 10
-1317.274943024514
 20
62.77389264918455
 10
-1317.274943024514
 20
4.100000000000136
 10
-1229.474943024514
 20
4.100000000000193
 10
-1229.474943024514
 20
62.77389264918451
  0
LINE
  5
BA0
330
1F
100
AcDbEntity
  8
0
100
AcDbLine
 10
-1229.474943024514
 20
66.77389264918449
 30
0.0
 11
-1317.274943024514
 21
66.77389264918449
 31
0.0
  0
LINE
  5
BA1
330
1F
100
AcDbEntity
  8
0
100
AcDbLine
 10
-1229.474943024514
 20
62.77389264918446
 30
0.0
 11
-1317.274943024514
 21
62.7738926491845
 31
0.0
  0
LWPOLYLINE
  5
BA2
330
1F
100
AcDbEntity
  8
0
100
AcDbPolyline
 90
        4
 70
     0
 43
0.0
 10
-1229.474943024514
 20
66.77389264918443
 10
-1229.474943024514
 20
296.9000000000003
 10
-1317.274943024514
 20
296.9000000000003
 10
-1317.274943024514
 20
66.77389264918452
  0
LWPOLYLINE
  5
BCE
102
{ACAD_REACTORS
330
BD3
330
CF6
102
}
330
1F
100
AcDbEntity
  8
0
100
AcDbPolyline
 90
        6
 70
     1
 43
0.0
 10
-1420.774943024514
 20
354.0000000000003
 42
0.9999999999999999
 10
-1423.774943024514
 20
354.0000000000003
 10
-1423.774943024514
 20
334.0000000000003
 10
-1423.774943024514
 20
314.0000000000003
 42
0.9999999999999999
 10
-1420.774943024514
 20
314.0000000000003
 10
-1420.774943024514
 20
334.0000000000003
  0
LWPOLYLINE
  5
BCF
102
{ACAD_REACTORS
330
BD3
330
CF6
102
}
330
1F
100
AcDbEntity
  8
0
100
AcDbPolyline
 90
        6
 70
     1
 43
0.0
 10
-1428.774943024514
 20
354.0000000000003
 42
0.9999999999999999
 10
-1431.774943024514
 20
354.0000000000003
 10
-1431.774943024514
 20
334.0000000000003
 10
-1431.774943024514
 20
314.0000000000003
 42
0.9999999999999999
 10
-1428.774943024514
 20
314.0000000000003
 10
-1428.774943024514
 20
334.0000000000003
  0
LWPOLYLINE
  5
BD0
102
{ACAD_REACTORS
330
BD3
330
CF6
102
}
330
1F
100
AcDbEntity
  8
0
100
AcDbPolyline
 90
        6
 70
     1
 43
0.0
 10
-1436.774943024514
 20
354.0000000000003
 42
0.9999999999999999
 10
-1439.774943024514
 20
354.0000000000003
 10
-1439.774943024514
 20
334.0000000000003
 10
-1439.774943024514
 20
314.0000000000003
 42
0.9999999999999999
 10
-1436.774943024514
 20
314.0000000000003
 10
-1436.774943024514
 20
334.0000000000003
  0
LWPOLYLINE
  5
BD1
102
{ACAD_REACTORS
330
BD3
330
CF6
102
}
330
1F
100
AcDbEntity
  8
0
100
AcDbPolyline
 90
        6
 70
     1
 43
0.0
 10
-1444.774943024514
 20
354.0000000000003
 42
0.9999999999999999
 10
-1447.774943024514
 20
354.0000000000003
 10
-1447.774943024514
 20
334.0000000000003
 10
-1447.774943024514
 20
314.0000000000003
 42
0.9999999999999999
 10
-1444.774943024514
 20
314.0000000000003
 10
-1444.774943024514
 20
334.0000000000003
  0
LWPOLYLINE
  5
BD2
102
{ACAD_REACTORS
330
BD3
330
CF6
102
}
330
1F
100
AcDbEntity
  8
0
100
AcDbPolyline
 90
        6
 70
     1
 43
0.0
 10
-1452.774943024514
 20
354.0000000000003
 42
0.9999999999999999
 10
-1455.774943024514
 20
354.0000000000003
 10
-1455.774943024514
 20
334.0000000000003
 10
-1455.774943024514
 20
314.0000000000003
 42
0.9999999999999999
 10
-1452.774943024514
 20
314.0000000000003
 10
-1452.774943024514
 20
334.0000000000003
  0
LWPOLYLINE
  5
C8A
330
1F
100
AcDbEntity
  8
0
100
AcDbPolyline
 90
        6
 70
     1
 43
0.0
 10
-1435.274943024514
 20
-116.9999999999998
 10
-1393.274943024514
 20
-116.9999999999998
 10
-1393.274943024514
 20
-64.99999999999977
 10
-1483.274943024514
 20
-64.99999999999977
 10
-1483.274943024514
 20
-116.9999999999998
 10
-1441.274943024514
 20
-116.9999999999998
 42
-0.9999999999999999
  0
LWPOLYLINE
  5
CB1
330
1F
100
AcDbEntity
  8
0
100
AcDbPolyline
 90
        4
 70
     1
 43
0.0
 10
-1393.274943024514
 20
370.0000000000002
 10
-1393.274943024514
 20
422.0000000000002
 10
-1483.274943024514
 20
422.0
 10
-1483.274943024514
 20
370.0000000000002
  0
CIRCLE
  5
D01
102
{ACAD_REACTORS
330
D53
102
}
330
1F
100
AcDbEntity
  8
0
100
AcDbCircle
 10
-1357.274943024514
 20
174.0720874187261
 30
0.0
 40
5.0
  0
ENDSEC
  0
SECTION
  2
OBJECTS
  0
DICTIONARY
  5
C
330
0
100
AcDbDictionary
281
     1
  3
ACAD_DETAILVIEWSTYLE
350
B5
  3
ACAD_GROUP
350
D
  3
ACAD_IMAGE_DICT
350
BD
  3
ACAD_IMAGE_VARS
350
6A
  3
ACAD_LAYOUT
350
1A
  3
ACAD_MATERIAL
350
72
  3
ACAD_MLEADERSTYLE
350
3F
  3
ACAD_MLINESTYLE
350
17
  3
ACAD_PLOTSETTINGS
350
19
  3
ACAD_PLOTSTYLENAME
350
E
  3
ACAD_SCALELIST
350
40
  3
ACAD_SECTIONVIEWSTYLE
350
B6
  3
ACAD_TABLESTYLE
350
3B
  3
ACAD_VISUALSTYLE
350
2A
  3
ACDB_RECOMPOSE_DATA
350
18D3
  3
AcDbVariableDictionary
350
3D
  3
APPDATA
350
71
  0
SUN
  5
80
330
29
100
AcDbSun
 90
        1
290
     0
 63
     7
421
 16777215
 40
1.0
291
     1
 91
  2455826
 92
 54000000
292
     0
 70
     2
 71
   256
280
     1
  0
DICTIONARY
  5
C1
330
2
100
AcDbDictionary
280
     1
281
     1
  3
ACAD_LAYERSTATES
360
C2
  3
ACLYDICTIONARY
360
A1D
  0
DICTIONARY
  5
B5
102
{ACAD_REACTORS
330
C
102
}
330
C
100
AcDbDictionary
281
     1
  0
DICTIONARY
  5
D
102
{ACAD_REACTORS
330
C
102
}
330
C
100
AcDbDictionary
281
     1
  3
*A1
350
BD3
  3
*A10
350
B3B
  3
*A11
350
E75
  3
*A12
350
E76
  3
*A15
350
18BE
  3
*A2
350
CF5
  3
*A3
350
CF6
  3
*A4
350
D51
  3
*A5
350
D53
  3
*A6
350
AD2
  3
*A7
350
B04
  3
*A8
350
B0F
  3
*A9
350
B10
  0
DICTIONARY
  5
BD
102
{ACAD_REACTORS
330
C
102
}
330
C
100
AcDbDictionary
281
     1
  3
6724
350
BE
  0
RASTERVARIABLES
  5
6A
102
{ACAD_REACTORS
330
C
102
}
330
C
100
AcDbRasterVariables
 90
        0
 70
     1
 71
     1
 72
     1
  0
DICTIONARY
  5
1A
102
{ACAD_REACTORS
330
C
102
}
330
C
100
AcDbDictionary
281
     1
  3
Model
350
22
  3
Sheet1
350
1E
  3
Sheet2
350
26
  0
DICTIONARY
  5
72
102
{ACAD_REACTORS
330
C
102
}
330
C
100
AcDbDictionary
281
     1
  3
ByBlock
350
74
  3
ByLayer
350
73
  3
Global
350
75
  0
DICTIONARY
  5
3F
102
{ACAD_REACTORS
330
C
102
}
330
C
100
AcDbDictionary
281
     1
  3
Standard
350
B7
  0
DICTIONARY
  5
17
102
{ACAD_REACTORS
330
C
102
}
330
C
100
AcDbDictionary
281
     1
  3
Standard
350
18
  0
DICTIONARY
  5
19
102
{ACAD_REACTORS
330
C
102
}
330
C
100
AcDbDictionary
281
     1
  0
ACDBDICTIONARYWDFLT
  5
E
102
{ACAD_REACTORS
330
C
102
}
330
C
100
AcDbDictionary
281
     1
  3
Normal
350
F
100
AcDbDictionaryWithDefault
340
F
  0
DICTIONARY
  5
40
102
{ACAD_REACTORS
330
C
102
}
330
C
100
AcDbDictionary
281
     1
  3
*A1
350
D0
  3
A0
350
41
  3
A1
350
42
  3
A2
350
43
  3
A3
350
44
  3
A4
350
45
  3
A5
350
46
  3
A6
350
47
  3
A7
350
48
  3
A8
350
49
  3
A9
350
4A
  3
B0
350
4B
  3
B1
350
4C
  3
B2
350
4D
  3
B3
350
4E
  3
B4
350
4F
  3
B5
350
50
  3
B6
350
51
  3
B7
350
52
  3
B8
350
53
  3
B9
350
54
  3
C0
350
55
  3
C1
350
56
  3
C2
350
57
  3
C3
350
58
  3
C4
350
59
  3
C5
350
5A
  3
C6
350
5B
  3
C7
350
5C
  3
C8
350
5D
  3
C9
350
5E
  3
D0
350
5F
  3
D1
350
60
  3
D2
350
61
  0
DICTIONARY
  5
B6
102
{ACAD_REACTORS
330
C
102
}
330
C
100
AcDbDictionary
281
     1
  0
DICTIONARY
  5
3B
102
{ACAD_REACTORS
330
C
102
}
330
C
100
AcDbDictionary
281
     1
  3
Standard
350
3C
  0
DICTIONARY
  5
2A
102
{ACAD_REACTORS
330
C
102
}
330
C
100
AcDbDictionary
281
     1
  3
2dWireframe
350
2F
  3
3D Hidden
350
31
  3
3dWireframe
350
30
  3
Basic
350
32
  3
Brighten
350
36
  3
ColorChange
350
3A
  3
Conceptual
350
34
  3
Dim
350
35
  3
EdgeColorOff
350
7A
  3
Facepattern
350
39
  3
Flat
350
2B
  3
FlatWithEdges
350
2C
  3
Gouraud
350
2D
  3
GouraudWithEdges
350
2E
  3
Hidden
350
77
  3
JitterOff
350
78
  3
Linepattern
350
38
  3
OverhangOff
350
79
  3
Realistic
350
33
  3
Shaded
350
7F
  3
Shaded with edges
350
7E
  3
Shades of Gray
350
7B
  3
Sketchy
350
7C
  3
Thicken
350
37
  3
Wireframe
350
76
  3
X-Ray
350
7D
  0
XRECORD
  5
18D3
102
{ACAD_REACTORS
330
C
102
}
330
C
100
AcDbXrecord
280
     1
 90
        1
330
3C
  0
DICTIONARY
  5
3D
102
{ACAD_REACTORS
330
C
102
}
330
C
100
AcDbDictionary
281
     1
  3
CANNOSCALE
350
62
  3
CMLEADERSTYLE
350
BB
  3
CTABLESTYLE
350
3E
  3
LIGHTSINBLOCKS
350
6F
  3
XCLIPFRAME
350
70
  0
DICTIONARY
  5
71
102
{ACAD_REACTORS
330
C
102
}
330
C
100
AcDbDictionary
281
     1
  0
DICTIONARY
  5
C2
102
{ACAD_REACTORS
330
C1
102
}
330
C1
100
AcDbDictionary
281
     1
  0
DICTIONARY
  5
A1D
102
{ACAD_REACTORS
330
C1
102
}
330
C1
100
AcDbDictionary
281
     1
1001
ACAD
1000
<All
  0
GROUP
  5
BD3
102
{ACAD_REACTORS
330
D
102
}
330
D
100
AcDbGroup
300

 70
     1
 71
     1
340
BCE
340
BCF
340
BD0
340
BD1
340
BD2
  0
GROUP
  5
B3B
102
{ACAD_REACTORS
330
D
102
}
330
D
100
AcDbGroup
300

 70
     1
 71
     1
340
B39
340
B3A
  0
GROUP
  5
E75
102
{ACAD_REACTORS
330
D
102
}
330
D
100
AcDbGroup
300

 70
     1
 71
     1
340
11D
340
1D4
340
4AA
340
4AB
340
4AC
340
4AD
340
4AE
340
4AF
340
4B0
340
4B1
340
4B2
340
4B3
340
4B4
340
4B5
340
4B6
340
4B7
340
4B8
340
4B9
340
4BA
340
4BB
340
4BD
340
4BE
340
4BF
340
4C0
340
4C1
340
4C2
340
4C3
340
4C4
340
4C5
340
4C6
340
4C7
340
4C8
340
4C9
340
4CA
340
4CB
340
4CC
340
4CD
340
4CE
340
4D0
340
4D1
340
4D2
340
4D3
340
4D4
340
4D5
340
4D6
340
4D7
340
4D8
340
4D9
340
4DA
340
4DB
340
4DC
340
4DD
340
4DE
340
4DF
340
4E0
340
4E1
340
4E3
340
4E4
340
4E5
340
4E6
340
4E7
340
4E8
340
4E9
340
4EA
340
4EB
340
4EC
340
4ED
340
4EE
340
4EF
340
4F0
340
4F1
340
4F2
340
4F3
340
4F4
340
4F6
340
4F7
340
4F8
340
4F9
340
4FA
340
4FB
340
4FC
340
4FD
340
4FE
340
4FF
340
500
340
501
340
502
340
503
340
504
340
505
340
506
340
507
340
509
340
50A
340
50B
340
50C
340
50D
340
50E
340
50F
340
510
340
511
340
512
340
513
340
514
340
515
340
516
340
517
340
518
340
519
340
51A
340
51C
340
51D
340
51E
340
51F
340
520
340
521
340
522
340
523
340
524
340
525
340
526
340
527
340
528
340
529
340
52A
340
52B
340
52C
340
52D
340
52F
340
530
340
531
340
532
340
533
340
534
340
535
340
536
340
537
340
538
340
539
340
53A
340
53B
340
53C
340
53D
340
53E
340
53F
340
540
340
542
340
543
340
544
340
545
340
546
340
547
340
548
340
549
340
54A
340
54B
340
54C
340
54D
340
54E
340
54F
340
550
340
551
340
552
340
553
340
555
340
556
340
557
340
558
340
559
340
55A
340
55B
340
55C
340
55D
340
55E
340
55F
340
560
340
561
340
562
340
563
340
564
340
565
340
566
340
568
340
569
340
56A
340
56B
340
56C
340
56D
340
56E
340
56F
340
570
340
571
340
572
340
573
340
574
340
575
340
576
340
577
340
578
340
579
340
57B
340
57C
340
57D
340
57E
340
57F
340
580
340
581
340
582
340
583
340
584
340
585
340
586
340
587
340
588
340
589
340
58A
340
58B
340
58C
340
731
  0
GROUP
  5
E76
102
{ACAD_REACTORS
330
D
102
}
330
D
100
AcDbGroup
300

 70
     1
 71
     1
340
AC5
340
AC4
  0
GROUP
  5
18BE
102
{ACAD_REACTORS
330
D
102
}
330
D
100
AcDbGroup
300

 70
     1
 71
     1
340
A7A
340
A7B
  0
GROUP
  5
CF5
102
{ACAD_REACTORS
330
D
102
}
330
D
100
AcDbGroup
300

 70
     1
 71
     1
340
796
340
797
340
75D
  0
GROUP
  5
CF6
102
{ACAD_REACTORS
330
D
102
}
330
D
100
AcDbGroup
300

 70
     1
 71
     1
340
67C
340
BCE
340
BCF
340
BD0
340
BD1
340
BD2
  0
GROUP
  5
D51
102
{ACAD_REACTORS
330
D
102
}
330
D
100
AcDbGroup
300

 70
     1
 71
     1
340
B05
340
B06
340
B07
340
B08
340
B09
340
822
340
ACE
340
ACF
340
AD0
340
AD1
340
652
  0
GROUP
  5
D53
102
{ACAD_REACTORS
330
D
102
}
330
D
100
AcDbGroup
300

 70
     1
 71
     1
340
62B
340
84B
340
AFF
340
B00
340
B01
340
B02
340
B03
340
B0A
340
B0B
340
B0C
340
B0D
340
B0E
340
D01
  0
GROUP
  5
AD2
102
{ACAD_REACTORS
330
D
102
}
330
D
100
AcDbGroup
300

 70
     1
 71
     1
340
822
340
ACE
340
ACF
340
AD0
340
AD1
  0
GROUP
  5
B04
102
{ACAD_REACTORS
330
D
102
}
330
D
100
AcDbGroup
300

 70
     1
 71
     1
340
AFF
340
B00
340
B01
340
B02
340
B03
  0
GROUP
  5
B0F
102
{ACAD_REACTORS
330
D
102
}
330
D
100
AcDbGroup
300

 70
     1
 71
     1
340
B05
340
B06
340
B07
340
B08
340
B09
  0
GROUP
  5
B10
102
{ACAD_REACTORS
330
D
102
}
330
D
100
AcDbGroup
300

 70
     1
 71
     1
340
B0A
340
B0B
340
B0C
340
B0D
340
B0E
  0
IMAGEDEF
  5
BE
102
{ACAD_REACTORS
330
BD
102
}
330
BD
100
AcDbRasterImageDef
 90
        0
  1
/home/artbit/Desktop/HAL9000/6724.jpg
 10
800.0
 20
574.0
 11
0.3528581510232887
 21
0.3528581510232887
280
     1
281
     3
  0
LAYOUT
  5
22
102
{ACAD_REACTORS
330
1A
102
}
330
1A
100
AcDbPlotSettings
  1

  2
none_device
  4
ISO_A3_(420.00_x_297.00_MM)
  6

 40
7.5
 41
20.0
 42
7.5
 43
20.0
 44
420.0
 45
297.0
 46
20.78282828282826
 47
0.0
 48
0.0
 49
0.0
140
0.0
141
0.0
142
1.0
143
1.155642023346303
 70
  1204
 72
     1
 73
     0
 74
     1
  7
monochrome.ctb
 75
     0
 76
     0
 77
     2
 78
   300
147
0.8653198653198654
148
-134.1869158878504
149
0.0
100
AcDbLayout
  1
Model
 70
     1
 71
     0
 10
0.0
 20
0.0
 11
420.0
 21
297.0
 12
0.0
 22
0.0
 32
0.0
 14
-1550.274943024514
 24
-116.9999999999998
 34
0.0
 15
-936.6749430245143
 25
422.0000000000002
 35
0.0
146
0.0
 13
0.0
 23
0.0
 33
0.0
 16
1.0
 26
0.0
 36
0.0
 17
0.0
 27
1.0
 37
0.0
 76
     0
330
1F
331
29
  0
LAYOUT
  5
1E
102
{ACAD_REACTORS
330
1A
102
}
330
1A
100
AcDbPlotSettings
  1

  2
none_device
  4

  6

 40
0.0
 41
0.0
 42
0.0
 43
0.0
 44
0.0
 45
0.0
 46
0.0
 47
0.0
 48
0.0
 49
0.0
140
0.0
141
0.0
142
1.0
143
1.0
 70
   688
 72
     0
 73
     0
 74
     5
  7

 75
    16
 76
     0
 77
     2
 78
   300
147
1.0
148
0.0
149
0.0
100
AcDbLayout
  1
Sheet1
 70
     1
 71
     1
 10
0.0
 20
0.0
 11
420.0
 21
297.0
 12
0.0
 22
0.0
 32
0.0
 14
1.000000000000000E+20
 24
1.000000000000000E+20
 34
1.000000000000000E+20
 15
-1.000000000000000E+20
 25
-1.000000000000000E+20
 35
-1.000000000000000E+20
146
0.0
 13
0.0
 23
0.0
 33
0.0
 16
1.0
 26
0.0
 36
0.0
 17
0.0
 27
1.0
 37
0.0
 76
     0
330
1B
  0
LAYOUT
  5
26
102
{ACAD_REACTORS
330
1A
102
}
330
1A
100
AcDbPlotSettings
  1

  2
none_device
  4

  6

 40
0.0
 41
0.0
 42
0.0
 43
0.0
 44
0.0
 45
0.0
 46
0.0
 47
0.0
 48
0.0
 49
0.0
140
0.0
141
0.0
142
1.0
143
1.0
 70
   688
 72
     0
 73
     0
 74
     5
  7

 75
    16
 76
     0
 77
     2
 78
   300
147
1.0
148
0.0
149
0.0
100
AcDbLayout
  1
Sheet2
 70
     1
 71
     2
 10
0.0
 20
0.0
 11
0.0
 21
0.0
 12
0.0
 22
0.0
 32
0.0
 14
0.0
 24
0.0
 34
0.0
 15
0.0
 25
0.0
 35
0.0
146
0.0
 13
0.0
 23
0.0
 33
0.0
 16
1.0
 26
0.0
 36
0.0
 17
0.0
 27
1.0
 37
0.0
 76
     0
330
23
  0
MATERIAL
  5
74
102
{ACAD_REACTORS
330
72
102
}
330
72
100
AcDbMaterial
  1
ByBlock
 72
     1
 94
      127
  0
MATERIAL
  5
73
102
{ACAD_REACTORS
330
72
102
}
330
72
100
AcDbMaterial
  1
ByLayer
 72
     1
 94
      127
  0
MATERIAL
  5
75
102
{ACAD_REACTORS
330
72
102
}
330
72
100
AcDbMaterial
  1
Global
 72
     1
 94
      127
  0
MLEADERSTYLE
  5
B7
102
{ACAD_REACTORS
330
3F
102
}
330
3F
100
AcDbMLeaderStyle
179
     2
170
     2
171
     1
172
     0
 90
        2
 40
0.0
 41
0.0
173
     1
 91
-1056964608
340
14
 92
       -2
290
     1
 42
2.0
291
     1
 43
8.0
  3
Standard
341
0
 44
4.0
300

342
11
174
     1
178
     6
175
     1
176
     0
 93
-1056964608
 45
4.0
292
     0
297
     0
 46
4.0
343
0
 94
-1056964608
 47
1.0
 49
1.0
140
1.0
293
     1
141
0.0
294
     1
177
     0
142
1.0
295
     0
296
     0
143
3.75
271
     0
272
     9
273
     9
298
     0
  0
MLINESTYLE
  5
18
102
{ACAD_REACTORS
330
17
102
}
330
17
100
AcDbMlineStyle
  2
Standard
 70
     0
  3

 62
   256
 51
90.0
 52
90.0
 71
     2
 49
0.5
 62
   256
  6
BYLAYER
 49
-0.5
 62
   256
  6
BYLAYER
  0
ACDBPLACEHOLDER
  5
F
102
{ACAD_REACTORS
330
E
102
}
330
E
  0
SCALE
  5
D0
102
{ACAD_REACTORS
330
40
102
}
330
40
100
AcDbScale
 70
     0
300
1:1_XREF_XREF
140
1.0
141
1.0
290
     0
  0
SCALE
  5
41
102
{ACAD_REACTORS
330
40
102
}
330
40
100
AcDbScale
 70
     0
300
1:1
140
1.0
141
1.0
290
     1
  0
SCALE
  5
42
102
{ACAD_REACTORS
330
40
102
}
330
40
100
AcDbScale
 70
     0
300
1:2
140
1.0
141
2.0
290
     0
  0
SCALE
  5
43
102
{ACAD_REACTORS
330
40
102
}
330
40
100
AcDbScale
 70
     0
300
1:4
140
1.0
141
4.0
290
     0
  0
SCALE
  5
44
102
{ACAD_REACTORS
330
40
102
}
330
40
100
AcDbScale
 70
     0
300
1:5
140
1.0
141
5.0
290
     0
  0
SCALE
  5
45
102
{ACAD_REACTORS
330
40
102
}
330
40
100
AcDbScale
 70
     0
300
1:8
140
1.0
141
8.0
290
     0
  0
SCALE
  5
46
102
{ACAD_REACTORS
330
40
102
}
330
40
100
AcDbScale
 70
     0
300
1:10
140
1.0
141
10.0
290
     0
  0
SCALE
  5
47
102
{ACAD_REACTORS
330
40
102
}
330
40
100
AcDbScale
 70
     0
300
1:16
140
1.0
141
16.0
290
     0
  0
SCALE
  5
48
102
{ACAD_REACTORS
330
40
102
}
330
40
100
AcDbScale
 70
     0
300
1:20
140
1.0
141
20.0
290
     0
  0
SCALE
  5
49
102
{ACAD_REACTORS
330
40
102
}
330
40
100
AcDbScale
 70
     0
300
1:30
140
1.0
141
30.0
290
     0
  0
SCALE
  5
4A
102
{ACAD_REACTORS
330
40
102
}
330
40
100
AcDbScale
 70
     0
300
1:40
140
1.0
141
40.0
290
     0
  0
SCALE
  5
4B
102
{ACAD_REACTORS
330
40
102
}
330
40
100
AcDbScale
 70
     0
300
1:50
140
1.0
141
50.0
290
     0
  0
SCALE
  5
4C
102
{ACAD_REACTORS
330
40
102
}
330
40
100
AcDbScale
 70
     0
300
1:100
140
1.0
141
100.0
290
     0
  0
SCALE
  5
4D
102
{ACAD_REACTORS
330
40
102
}
330
40
100
AcDbScale
 70
     0
300
2:1
140
2.0
141
1.0
290
     0
  0
SCALE
  5
4E
102
{ACAD_REACTORS
330
40
102
}
330
40
100
AcDbScale
 70
     0
300
4:1
140
4.0
141
1.0
290
     0
  0
SCALE
  5
4F
102
{ACAD_REACTORS
330
40
102
}
330
40
100
AcDbScale
 70
     0
300
8:1
140
8.0
141
1.0
290
     0
  0
SCALE
  5
50
102
{ACAD_REACTORS
330
40
102
}
330
40
100
AcDbScale
 70
     0
300
10:1
140
10.0
141
1.0
290
     0
  0
SCALE
  5
51
102
{ACAD_REACTORS
330
40
102
}
330
40
100
AcDbScale
 70
     0
300
100:1
140
100.0
141
1.0
290
     0
  0
SCALE
  5
52
102
{ACAD_REACTORS
330
40
102
}
330
40
100
AcDbScale
 70
     0
300
1/128" = 1'-0"
140
0.0078125
141
12.0
290
     0
  0
SCALE
  5
53
102
{ACAD_REACTORS
330
40
102
}
330
40
100
AcDbScale
 70
     0
300
1/64" = 1'-0"
140
0.015625
141
12.0
290
     0
  0
SCALE
  5
54
102
{ACAD_REACTORS
330
40
102
}
330
40
100
AcDbScale
 70
     0
300
1/32" = 1'-0"
140
0.03125
141
12.0
290
     0
  0
SCALE
  5
55
102
{ACAD_REACTORS
330
40
102
}
330
40
100
AcDbScale
 70
     0
300
1/16" = 1'-0"
140
0.0625
141
12.0
290
     0
  0
SCALE
  5
56
102
{ACAD_REACTORS
330
40
102
}
330
40
100
AcDbScale
 70
     0
300
3/32" = 1'-0"
140
0.09375
141
12.0
290
     0
  0
SCALE
  5
57
102
{ACAD_REACTORS
330
40
102
}
330
40
100
AcDbScale
 70
     0
300
1/8" = 1'-0"
140
0.125
141
12.0
290
     0
  0
SCALE
  5
58
102
{ACAD_REACTORS
330
40
102
}
330
40
100
AcDbScale
 70
     0
300
3/16" = 1'-0"
140
0.1875
141
12.0
290
     0
  0
SCALE
  5
59
102
{ACAD_REACTORS
330
40
102
}
330
40
100
AcDbScale
 70
     0
300
1/4" = 1'-0"
140
0.25
141
12.0
290
     0
  0
SCALE
  5
5A
102
{ACAD_REACTORS
330
40
102
}
330
40
100
AcDbScale
 70
     0
300
3/8" = 1'-0"
140
0.375
141
12.0
290
     0
  0
SCALE
  5
5B
102
{ACAD_REACTORS
330
40
102
}
330
40
100
AcDbScale
 70
     0
300
1/2" = 1'-0"
140
0.5
141
12.0
290
     0
  0
SCALE
  5
5C
102
{ACAD_REACTORS
330
40
102
}
330
40
100
AcDbScale
 70
     0
300
3/4" = 1'-0"
140
0.75
141
12.0
290
     0
  0
SCALE
  5
5D
102
{ACAD_REACTORS
330
40
102
}
330
40
100
AcDbScale
 70
     0
300
1" = 1'-0"
140
1.0
141
12.0
290
     0
  0
SCALE
  5
5E
102
{ACAD_REACTORS
330
40
102
}
330
40
100
AcDbScale
 70
     0
300
1-1/2" = 1'-0"
140
1.5
141
12.0
290
     0
  0
SCALE
  5
5F
102
{ACAD_REACTORS
330
40
102
}
330
40
100
AcDbScale
 70
     0
300
3" = 1'-0"
140
3.0
141
12.0
290
     0
  0
SCALE
  5
60
102
{ACAD_REACTORS
330
40
102
}
330
40
100
AcDbScale
 70
     0
300
6" = 1'-0"
140
6.0
141
12.0
290
     0
  0
SCALE
  5
61
102
{ACAD_REACTORS
330
40
102
}
330
40
100
AcDbScale
 70
     0
300
1'-0" = 1'-0"
140
12.0
141
12.0
290
     0
  0
TABLESTYLE
  5
3C
102
{ACAD_REACTORS
330
3B
102
}
102
{ACAD_XDICTIONARY
360
18D1
102
}
330
3B
100
AcDbTableStyle
  3
Standard
 70
     0
 71
     0
 40
1.5
 41
1.5
280
     0
281
     0
  7
Standard
140
4.5
170
     2
 62
     0
 63
   257
283
     0
 90
      512
 91
        0
  1

274
    -2
284
     1
 64
     0
275
    -2
285
     1
 65
     0
276
    -2
286
     1
 66
     0
277
    -2
287
     1
 67
     0
278
    -2
288
     1
 68
     0
279
    -2
289
     1
 69
     0
  7
Standard
140
6.0
170
     5
 62
     0
 63
   257
283
     0
 90
      512
 91
        0
  1

274
    -2
284
     1
 64
     0
275
    -2
285
     1
 65
     0
276
    -2
286
     1
 66
     0
277
    -2
287
     1
 67
     0
278
    -2
288
     1
 68
     0
279
    -2
289
     1
 69
     0
  7
Standard
140
4.5
170
     5
 62
     0
 63
   257
283
     0
 90
      512
 91
        0
  1

274
    -2
284
     1
 64
     0
275
    -2
285
     1
 65
     0
276
    -2
286
     1
 66
     0
277
    -2
287
     1
 67
     0
278
    -2
288
     1
 68
     0
279
    -2
289
     1
 69
     0
  0
VISUALSTYLE
  5
2F
102
{ACAD_REACTORS
330
2A
102
}
330
2A
100
AcDbVisualStyle
  2
2dWireframe
 70
     4
177
     3
291
     0
 70
    58
 90
        0
176
     1
 90
        2
176
     1
 90
        0
176
     1
 90
        0
176
     1
 40
-0.6
176
     1
 40
-30.0
176
     1
 62
     7
420
 16777215
176
     1
 90
        1
176
     1
 90
        4
176
     1
 62
     7
176
     1
 62
   257
176
     1
 90
        1
176
     1
 90
        1
176
     1
 40
1.0
176
     1
 90
        0
176
     1
 62
   257
176
     1
 40
1.0
176
     1
 90
        1
176
     1
 90
        6
176
     1
 90
        2
176
     1
 62
     7
176
     1
 90
        5
176
     1
 90
        0
176
     1
 90
        0
176
     1
290
     0
176
     1
 90
        1
176
     1
 40
0.0
176
     1
 90
        0
176
     1
290
     1
176
     1
290
     1
176
     1
290
     0
176
     1
290
     0
176
     1
290
     0
176
     1
290
     0
176
     1
290
     0
176
     1
290
     0
176
     1
290
     0
176
     1
 90
       50
176
     1
 40
0.0
176
     1
 40
1.0
176
     1
 90
        0
176
     1
 62
   178
420
        0
176
     1
 90
       50
176
     1
 90
        3
176
     1
 62
     5
420
      255
176
     1
290
     0
176
     1
 90
       50
176
     1
 90
       50
176
     1
 90
       50
176
     1
290
     0
176
     1
 90
       50
176
     1
 62
   256
176
     0
 40
1.0
176
     0
 90
        2
176
     1
  1
strokes_ogs.tif
176
     1
290
     0
176
     1
 40
1.0
176
     1
 40
1.0
176
     1
  0
VISUALSTYLE
  5
31
102
{ACAD_REACTORS
330
2A
102
}
330
2A
100
AcDbVisualStyle
  2
3D Hidden
 70
     6
177
     3
291
     0
 70
    58
 90
        1
176
     1
 90
        2
176
     1
 90
        2
176
     1
 90
        0
176
     1
 40
-0.6
176
     1
 40
-30.0
176
     1
 62
     7
420
 16777215
176
     1
 90
        2
176
     1
 90
        2
176
     1
 62
     7
176
     1
 62
   257
176
     1
 90
        2
176
     1
 90
        1
176
     1
 40
40.0
176
     1
 90
        0
176
     1
 62
   257
176
     1
 40
1.0
176
     1
 90
        1
176
     1
 90
        6
176
     1
 90
        2
176
     1
 62
     7
176
     1
 90
        3
176
     1
 90
        0
176
     1
 90
        0
176
     1
290
     0
176
     1
 90
        1
176
     1
 40
0.0
176
     1
 90
        0
176
     1
290
     0
176
     1
290
     1
176
     1
290
     1
176
     1
290
     0
176
     1
290
     0
176
     1
290
     0
176
     1
290
     0
176
     1
290
     0
176
     1
290
     0
176
     1
 90
       50
176
     1
 40
0.0
176
     1
 40
1.0
176
     1
 90
        0
176
     1
 62
   178
420
        0
176
     1
 90
       50
176
     1
 90
        3
176
     1
 62
     5
420
      255
176
     1
290
     0
176
     1
 90
       50
176
     1
 90
       50
176
     1
 90
       50
176
     1
290
     0
176
     1
 90
       50
176
     1
 62
   256
176
     0
 40
1.0
176
     0
 90
        2
176
     1
  1
strokes_ogs.tif
176
     1
290
     0
176
     1
 40
1.0
176
     1
 40
1.0
176
     1
  0
VISUALSTYLE
  5
30
102
{ACAD_REACTORS
330
2A
102
}
330
2A
100
AcDbVisualStyle
  2
3dWireframe
 70
     5
177
     3
291
     0
 70
    58
 90
        0
176
     1
 90
        2
176
     1
 90
        0
176
     1
 90
        0
176
     1
 40
-0.6
176
     1
 40
-30.0
176
     1
 62
     7
420
 16777215
176
     1
 90
        1
176
     1
 90
        4
176
     1
 62
     7
176
     1
 62
   257
176
     1
 90
        1
176
     1
 90
        1
176
     1
 40
1.0
176
     1
 90
        0
176
     1
 62
   257
176
     1
 40
1.0
176
     1
 90
        1
176
     1
 90
        6
176
     1
 90
        2
176
     1
 62
     7
176
     1
 90
        5
176
     1
 90
        0
176
     1
 90
        0
176
     1
290
     0
176
     1
 90
        1
176
     1
 40
0.0
176
     1
 90
        0
176
     1
290
     0
176
     1
290
     1
176
     1
290
     1
176
     1
290
     0
176
     1
290
     0
176
     1
290
     0
176
     1
290
     0
176
     1
290
     0
176
     1
290
     0
176
     1
 90
       50
176
     1
 40
0.0
176
     1
 40
1.0
176
     1
 90
        0
176
     1
 62
   178
420
        0
176
     1
 90
       50
176
     1
 90
        3
176
     1
 62
     5
420
      255
176
     1
290
     0
176
     1
 90
       50
176
     1
 90
       50
176
     1
 90
       50
176
     1
290
     0
176
     1
 90
       50
176
     1
 62
   256
176
     0
 40
1.0
176
     0
 90
        2
176
     1
  1
strokes_ogs.tif
176
     1
290
     0
176
     1
 40
1.0
176
     1
 40
1.0
176
     1
  0
VISUALSTYLE
  5
32
102
{ACAD_REACTORS
330
2A
102
}
330
2A
100
AcDbVisualStyle
  2
Basic
 70
     7
177
     3
291
     1
 70
    58
 90
        1
176
     1
 90
        0
176
     1
 90
        1
176
     1
 90
        0
176
     1
 40
-0.6
176
     1
 40
-30.0
176
     1
 62
     7
420
 16777215
176
     1
 90
        0
176
     1
 90
        4
176
     1
 62
     7
176
     1
 62
   257
176
     1
 90
        1
176
     1
 90
        1
176
     1
 40
1.0
176
     1
 90
        8
176
     1
 62
     7
176
     1
 40
1.0
176
     1
 90
        1
176
     1
 90
        6
176
     1
 90
        2
176
     1
 62
     7
176
     1
 90
        5
176
     1
 90
        0
176
     1
 90
        0
176
     1
290
     0
176
     1
 90
        1
176
     1
 40
0.0
176
     1
 90
        0
176
     1
290
     0
176
     1
290
     1
176
     1
290
     1
176
     1
290
     0
176
     1
290
     0
176
     1
290
     0
176
     1
290
     0
176
     1
290
     0
176
     1
290
     0
176
     1
 90
       50
176
     1
 40
0.0
176
     1
 40
1.0
176
     1
 90
        0
176
     1
 62
   178
420
        0
176
     1
 90
       50
176
     1
 90
        3
176
     1
 62
     5
420
      255
176
     1
290
     0
176
     1
 90
       50
176
     1
 90
       50
176
     1
 90
       50
176
     1
290
     0
176
     1
 90
       50
176
     1
 62
   256
176
     0
 40
1.0
176
     0
 90
        2
176
     1
  1
strokes_ogs.tif
176
     1
290
     0
176
     1
 40
1.0
176
     1
 40
1.0
176
     1
  0
VISUALSTYLE
  5
36
102
{ACAD_REACTORS
330
2A
102
}
330
2A
100
AcDbVisualStyle
  2
Brighten
 70
    12
177
     3
291
     1
 70
    58
 90
        2
176
     1
 90
        2
176
     1
 90
        0
176
     1
 90
        0
176
     1
 40
-0.6
176
     1
 40
-30.0
176
     1
 62
     7
420
 16777215
176
     1
 90
        1
176
     1
 90
        4
176
     1
 62
     7
176
     1
 62
   257
176
     1
 90
        1
176
     1
 90
        1
176
     1
 40
1.0
176
     1
 90
        8
176
     1
 62
     7
176
     1
 40
1.0
176
     1
 90
        1
176
     1
 90
        6
176
     1
 90
        2
176
     1
 62
     7
176
     1
 90
        5
176
     1
 90
        0
176
     1
 90
        0
176
     1
290
     0
176
     1
 90
        1
176
     1
 40
50.0
176
     1
 90
        0
176
     1
290
     0
176
     1
290
     1
176
     1
290
     1
176
     1
290
     0
176
     1
290
     0
176
     1
290
     0
176
     1
290
     0
176
     1
290
     0
176
     1
290
     0
176
     1
 90
       50
176
     1
 40
0.0
176
     1
 40
1.0
176
     1
 90
        0
176
     1
 62
   178
420
        0
176
     1
 90
       50
176
     1
 90
        3
176
     1
 62
     5
420
      255
176
     1
290
     0
176
     1
 90
       50
176
     1
 90
       50
176
     1
 90
       50
176
     1
290
     0
176
     1
 90
       50
176
     1
 62
   256
176
     0
 40
1.0
176
     0
 90
        2
176
     1
  1
strokes_ogs.tif
176
     1
290
     0
176
     1
 40
1.0
176
     1
 40
1.0
176
     1
  0
VISUALSTYLE
  5
3A
102
{ACAD_REACTORS
330
2A
102
}
330
2A
100
AcDbVisualStyle
  2
ColorChange
 70
    16
177
     3
291
     1
 70
    58
 90
        2
176
     1
 90
        2
176
     1
 90
        3
176
     1
 90
        0
176
     1
 40
-0.6
176
     1
 40
-30.0
176
     1
 62
     8
420
  8421504
176
     1
 90
        1
176
     1
 90
        4
176
     1
 62
     7
176
     1
 62
   257
176
     1
 90
        1
176
     1
 90
        1
176
     1
 40
1.0
176
     1
 90
        8
176
     1
 62
     8
420
  8421504
176
     1
 40
1.0
176
     1
 90
        1
176
     1
 90
        6
176
     1
 90
        2
176
     1
 62
     7
176
     1
 90
        5
176
     1
 90
        0
176
     1
 90
        0
176
     1
290
     0
176
     1
 90
        1
176
     1
 40
0.0
176
     1
 90
        0
176
     1
290
     0
176
     1
290
     1
176
     1
290
     1
176
     1
290
     0
176
     1
290
     0
176
     1
290
     0
176
     1
290
     0
176
     1
290
     0
176
     1
290
     0
176
     1
 90
       50
176
     1
 40
0.0
176
     1
 40
1.0
176
     1
 90
        0
176
     1
 62
   178
420
        0
176
     1
 90
       50
176
     1
 90
        3
176
     1
 62
     5
420
      255
176
     1
290
     0
176
     1
 90
       50
176
     1
 90
       50
176
     1
 90
       50
176
     1
290
     0
176
     1
 90
       50
176
     1
 62
   256
176
     0
 40
1.0
176
     0
 90
        2
176
     1
  1
strokes_ogs.tif
176
     1
290
     0
176
     1
 40
1.0
176
     1
 40
1.0
176
     1
  0
VISUALSTYLE
  5
34
102
{ACAD_REACTORS
330
2A
102
}
330
2A
100
AcDbVisualStyle
  2
Conceptual
 70
     9
177
     3
291
     0
 70
    58
 90
        3
176
     1
 90
        2
176
     1
 90
        0
176
     1
 90
        0
176
     1
 40
-0.6
176
     1
 40
-30.0
176
     1
 62
     7
420
 16777215
176
     1
 90
        2
176
     1
 90
        2
176
     1
 62
     7
176
     1
 62
   257
176
     1
 90
        1
176
     1
 90
        1
176
     1
 40
40.0
176
     1
 90
        8
176
     1
 62
     7
176
     1
 40
1.0
176
     1
 90
        1
176
     1
 90
        6
176
     1
 90
        2
176
     1
 62
     7
176
     1
 90
        3
176
     1
 90
        0
176
     1
 90
        0
176
     1
290
     0
176
     1
 90
        1
176
     1
 40
0.0
176
     1
 90
        0
176
     1
290
     0
176
     1
290
     1
176
     1
290
     1
176
     1
290
     0
176
     1
290
     0
176
     1
290
     0
176
     1
290
     0
176
     1
290
     0
176
     1
290
     0
176
     1
 90
       50
176
     1
 40
0.0
176
     1
 40
1.0
176
     1
 90
        0
176
     1
 62
   178
420
        0
176
     1
 90
       50
176
     1
 90
        3
176
     1
 62
     5
420
      255
176
     1
290
     0
176
     1
 90
       50
176
     1
 90
       50
176
     1
 90
       50
176
     1
290
     0
176
     1
 90
       50
176
     1
 62
   256
176
     0
 40
1.0
176
     0
 90
        2
176
     1
  1
strokes_ogs.tif
176
     1
290
     0
176
     1
 40
1.0
176
     1
 40
1.0
176
     1
  0
VISUALSTYLE
  5
35
102
{ACAD_REACTORS
330
2A
102
}
330
2A
100
AcDbVisualStyle
  2
Dim
 70
    11
177
     3
291
     1
 70
    58
 90
        2
176
     1
 90
        2
176
     1
 90
        0
176
     1
 90
        0
176
     1
 40
-0.6
176
     1
 40
-30.0
176
     1
 62
     7
420
 16777215
176
     1
 90
        1
176
     1
 90
        4
176
     1
 62
     7
176
     1
 62
   257
176
     1
 90
        1
176
     1
 90
        1
176
     1
 40
1.0
176
     1
 90
        8
176
     1
 62
     7
176
     1
 40
1.0
176
     1
 90
        1
176
     1
 90
        6
176
     1
 90
        2
176
     1
 62
     7
176
     1
 90
        5
176
     1
 90
        0
176
     1
 90
        0
176
     1
290
     0
176
     1
 90
        1
176
     1
 40
-50.0
176
     1
 90
        0
176
     1
290
     0
176
     1
290
     1
176
     1
290
     1
176
     1
290
     0
176
     1
290
     0
176
     1
290
     0
176
     1
290
     0
176
     1
290
     0
176
     1
290
     0
176
     1
 90
       50
176
     1
 40
0.0
176
     1
 40
1.0
176
     1
 90
        0
176
     1
 62
   178
420
        0
176
     1
 90
       50
176
     1
 90
        3
176
     1
 62
     5
420
      255
176
     1
290
     0
176
     1
 90
       50
176
     1
 90
       50
176
     1
 90
       50
176
     1
290
     0
176
     1
 90
       50
176
     1
 62
   256
176
     0
 40
1.0
176
     0
 90
        2
176
     1
  1
strokes_ogs.tif
176
     1
290
     0
176
     1
 40
1.0
176
     1
 40
1.0
176
     1
  0
VISUALSTYLE
  5
7A
102
{ACAD_REACTORS
330
2A
102
}
330
2A
100
AcDbVisualStyle
  2
EdgeColorOff
 70
    22
177
     3
291
     1
 70
    58
 90
        2
176
     0
 90
        2
176
     0
 90
        0
176
     0
 90
        0
176
     0
 40
0.6
176
     0
 40
30.0
176
     0
 62
     7
420
 16777215
176
     0
 90
        1
176
     0
 90
        4
176
     0
 62
     7
176
     0
 62
   257
176
     0
 90
        1
176
     0
 90
        1
176
     0
 40
1.0
176
     0
 90
        8
176
     2
 62
     7
176
     0
 40
1.0
176
     0
 90
        1
176
     0
 90
        6
176
     0
 90
        2
176
     0
 62
     7
176
     0
 90
        5
176
     0
 90
        0
176
     0
 90
        0
176
     0
290
     0
176
     0
 90
        1
176
     0
 40
0.0
176
     0
 90
        0
176
     0
290
     0
176
     0
290
     1
176
     0
290
     1
176
     0
290
     0
176
     0
290
     0
176
     0
290
     0
176
     0
290
     0
176
     0
290
     0
176
     0
290
     0
176
     0
 90
       50
176
     0
 40
0.0
176
     0
 40
1.0
176
     0
 90
        0
176
     0
 62
   178
420
        0
176
     0
 90
       50
176
     0
 90
        3
176
     0
 62
     5
420
      255
176
     0
290
     0
176
     0
 90
       50
176
     0
 90
       50
176
     0
 90
       50
176
     0
290
     0
176
     0
 90
       50
176
     0
 62
   256
176
     0
 40
1.0
176
     0
 90
        2
176
     0
  1
strokes_ogs.tif
176
     0
290
     0
176
     0
 40
1.0
176
     0
 40
1.0
176
     0
  0
VISUALSTYLE
  5
39
102
{ACAD_REACTORS
330
2A
102
}
330
2A
100
AcDbVisualStyle
  2
Facepattern
 70
    15
177
     3
291
     1
 70
    58
 90
        2
176
     1
 90
        2
176
     1
 90
        0
176
     1
 90
        0
176
     1
 40
-0.6
176
     1
 40
-30.0
176
     1
 62
     7
420
 16777215
176
     1
 90
        1
176
     1
 90
        4
176
     1
 62
     7
176
     1
 62
   257
176
     1
 90
        1
176
     1
 90
        1
176
     1
 40
1.0
176
     1
 90
        8
176
     1
 62
     7
176
     1
 40
1.0
176
     1
 90
        1
176
     1
 90
        6
176
     1
 90
        2
176
     1
 62
     7
176
     1
 90
        5
176
     1
 90
        0
176
     1
 90
        0
176
     1
290
     0
176
     1
 90
        1
176
     1
 40
0.0
176
     1
 90
        0
176
     1
290
     0
176
     1
290
     1
176
     1
290
     1
176
     1
290
     0
176
     1
290
     0
176
     1
290
     0
176
     1
290
     0
176
     1
290
     0
176
     1
290
     0
176
     1
 90
       50
176
     1
 40
0.0
176
     1
 40
1.0
176
     1
 90
        0
176
     1
 62
   178
420
        0
176
     1
 90
       50
176
     1
 90
        3
176
     1
 62
     5
420
      255
176
     1
290
     0
176
     1
 90
       50
176
     1
 90
       50
176
     1
 90
       50
176
     1
290
     0
176
     1
 90
       50
176
     1
 62
   256
176
     0
 40
1.0
176
     0
 90
        2
176
     1
  1
strokes_ogs.tif
176
     1
290
     0
176
     1
 40
1.0
176
     1
 40
1.0
176
     1
  0
VISUALSTYLE
  5
2B
102
{ACAD_REACTORS
330
2A
102
}
330
2A
100
AcDbVisualStyle
  2
Flat
 70
     0
177
     3
291
     1
 70
    58
 90
        2
176
     1
 90
        1
176
     1
 90
        1
176
     1
 90
        2
176
     1
 40
-0.6
176
     1
 40
30.0
176
     1
 62
     7
420
 16777215
176
     1
 90
        0
176
     1
 90
        4
176
     1
 62
     7
176
     1
 62
   257
176
     1
 90
        1
176
     1
 90
        1
176
     1
 40
1.0
176
     1
 90
        8
176
     1
 62
     7
176
     1
 40
1.0
176
     1
 90
        1
176
     1
 90
        6
176
     1
 90
        2
176
     1
 62
     7
176
     1
 90
        5
176
     1
 90
        0
176
     1
 90
        0
176
     1
290
     0
176
     1
 90
       13
176
     1
 40
0.0
176
     1
 90
        0
176
     1
290
     0
176
     1
290
     1
176
     1
290
     1
176
     1
290
     0
176
     1
290
     0
176
     1
290
     0
176
     1
290
     0
176
     1
290
     0
176
     1
290
     0
176
     1
 90
       50
176
     1
 40
0.0
176
     1
 40
1.0
176
     1
 90
        0
176
     1
 62
   178
420
        0
176
     1
 90
       50
176
     1
 90
        3
176
     1
 62
     5
420
      255
176
     1
290
     0
176
     1
 90
       50
176
     1
 90
       50
176
     1
 90
       50
176
     1
290
     0
176
     1
 90
       50
176
     1
 62
   256
176
     0
 40
1.0
176
     0
 90
        2
176
     1
  1
strokes_ogs.tif
176
     1
290
     0
176
     1
 40
1.0
176
     1
 40
1.0
176
     1
  0
VISUALSTYLE
  5
2C
102
{ACAD_REACTORS
330
2A
102
}
330
2A
100
AcDbVisualStyle
  2
FlatWithEdges
 70
     1
177
     3
291
     1
 70
    58
 90
        2
176
     1
 90
        1
176
     1
 90
        1
176
     1
 90
        2
176
     1
 40
-0.6
176
     1
 40
30.0
176
     1
 62
     7
420
 16777215
176
     1
 90
        1
176
     1
 90
        4
176
     1
 62
     7
176
     1
 62
   257
176
     1
 90
        1
176
     1
 90
        1
176
     1
 40
1.0
176
     1
 90
        0
176
     1
 62
   257
176
     1
 40
1.0
176
     1
 90
        1
176
     1
 90
        6
176
     1
 90
        2
176
     1
 62
     7
176
     1
 90
        5
176
     1
 90
        0
176
     1
 90
        0
176
     1
290
     0
176
     1
 90
       13
176
     1
 40
0.0
176
     1
 90
        0
176
     1
290
     0
176
     1
290
     1
176
     1
290
     1
176
     1
290
     0
176
     1
290
     0
176
     1
290
     0
176
     1
290
     0
176
     1
290
     0
176
     1
290
     0
176
     1
 90
       50
176
     1
 40
0.0
176
     1
 40
1.0
176
     1
 90
        0
176
     1
 62
   178
420
        0
176
     1
 90
       50
176
     1
 90
        3
176
     1
 62
     5
420
      255
176
     1
290
     0
176
     1
 90
       50
176
     1
 90
       50
176
     1
 90
       50
176
     1
290
     0
176
     1
 90
       50
176
     1
 62
   256
176
     0
 40
1.0
176
     0
 90
        2
176
     1
  1
strokes_ogs.tif
176
     1
290
     0
176
     1
 40
1.0
176
     1
 40
1.0
176
     1
  0
VISUALSTYLE
  5
2D
102
{ACAD_REACTORS
330
2A
102
}
330
2A
100
AcDbVisualStyle
  2
Gouraud
 70
     2
177
     3
291
     1
 70
    58
 90
        2
176
     1
 90
        2
176
     1
 90
        1
176
     1
 90
        2
176
     1
 40
-0.6
176
     1
 40
30.0
176
     1
 62
     7
420
 16777215
176
     1
 90
        0
176
     1
 90
        4
176
     1
 62
     7
176
     1
 62
   257
176
     1
 90
        1
176
     1
 90
        1
176
     1
 40
1.0
176
     1
 90
        0
176
     1
 62
     7
176
     1
 40
1.0
176
     1
 90
        1
176
     1
 90
        6
176
     1
 90
        2
176
     1
 62
     7
176
     1
 90
        5
176
     1
 90
        0
176
     1
 90
        0
176
     1
290
     0
176
     1
 90
       13
176
     1
 40
0.0
176
     1
 90
        0
176
     1
290
     0
176
     1
290
     1
176
     1
290
     1
176
     1
290
     0
176
     1
290
     0
176
     1
290
     0
176
     1
290
     0
176
     1
290
     0
176
     1
290
     0
176
     1
 90
       50
176
     1
 40
0.0
176
     1
 40
1.0
176
     1
 90
        0
176
     1
 62
   178
420
        0
176
     1
 90
       50
176
     1
 90
        3
176
     1
 62
     5
420
      255
176
     1
290
     0
176
     1
 90
       50
176
     1
 90
       50
176
     1
 90
       50
176
     1
290
     0
176
     1
 90
       50
176
     1
 62
   256
176
     0
 40
1.0
176
     0
 90
        2
176
     1
  1
strokes_ogs.tif
176
     1
290
     0
176
     1
 40
1.0
176
     1
 40
1.0
176
     1
  0
VISUALSTYLE
  5
2E
102
{ACAD_REACTORS
330
2A
102
}
330
2A
100
AcDbVisualStyle
  2
GouraudWithEdges
 70
     3
177
     3
291
     1
 70
    58
 90
        2
176
     1
 90
        2
176
     1
 90
        1
176
     1
 90
        2
176
     1
 40
-0.6
176
     1
 40
30.0
176
     1
 62
     7
420
 16777215
176
     1
 90
        1
176
     1
 90
        4
176
     1
 62
     7
176
     1
 62
   257
176
     1
 90
        1
176
     1
 90
        1
176
     1
 40
1.0
176
     1
 90
        0
176
     1
 62
   257
176
     1
 40
1.0
176
     1
 90
        1
176
     1
 90
        6
176
     1
 90
        2
176
     1
 62
     7
176
     1
 90
        5
176
     1
 90
        0
176
     1
 90
        0
176
     1
290
     0
176
     1
 90
       13
176
     1
 40
0.0
176
     1
 90
        0
176
     1
290
     0
176
     1
290
     1
176
     1
290
     1
176
     1
290
     0
176
     1
290
     0
176
     1
290
     0
176
     1
290
     0
176
     1
290
     0
176
     1
290
     0
176
     1
 90
       50
176
     1
 40
0.0
176
     1
 40
1.0
176
     1
 90
        0
176
     1
 62
   178
420
        0
176
     1
 90
       50
176
     1
 90
        3
176
     1
 62
     5
420
      255
176
     1
290
     0
176
     1
 90
       50
176
     1
 90
       50
176
     1
 90
       50
176
     1
290
     0
176
     1
 90
       50
176
     1
 62
   256
176
     0
 40
1.0
176
     0
 90
        2
176
     1
  1
strokes_ogs.tif
176
     1
290
     0
176
     1
 40
1.0
176
     1
 40
1.0
176
     1
  0
VISUALSTYLE
  5
77
102
{ACAD_REACTORS
330
2A
102
}
330
2A
100
AcDbVisualStyle
  2
Hidden
 70
     6
177
     3
291
     0
 70
    58
 90
        1
176
     1
 90
        2
176
     1
 90
        2
176
     1
 90
        0
176
     1
 40
0.6
176
     1
 40
30.0
176
     1
 62
     7
420
 16777215
176
     1
 90
        2
176
     1
 90
        2
176
     1
 62
     7
176
     1
 62
   257
176
     1
 90
        2
176
     1
 90
        1
176
     1
 40
40.0
176
     1
 90
        0
176
     1
 62
   257
176
     1
 40
1.0
176
     1
 90
        1
176
     1
 90
        6
176
     1
 90
        2
176
     1
 62
     7
176
     1
 90
        3
176
     1
 90
        0
176
     1
 90
        0
176
     1
290
     0
176
     1
 90
        1
176
     1
 40
0.0
176
     1
 90
        0
176
     1
290
     0
176
     1
290
     1
176
     1
290
     1
176
     1
290
     0
176
     1
290
     0
176
     1
290
     0
176
     1
290
     0
176
     1
290
     0
176
     1
290
     0
176
     1
 90
       50
176
     1
 40
0.0
176
     1
 40
1.0
176
     1
 90
        0
176
     1
 62
   178
420
        0
176
     1
 90
       50
176
     1
 90
        3
176
     1
 62
     5
420
      255
176
     1
290
     0
176
     1
 90
       50
176
     1
 90
       50
176
     1
 90
       50
176
     1
290
     0
176
     1
 90
       50
176
     1
 62
   256
176
     0
 40
1.0
176
     0
 90
        2
176
     1
  1
strokes_ogs.tif
176
     1
290
     0
176
     1
 40
1.0
176
     1
 40
1.0
176
     1
  0
VISUALSTYLE
  5
78
102
{ACAD_REACTORS
330
2A
102
}
330
2A
100
AcDbVisualStyle
  2
JitterOff
 70
    20
177
     3
291
     1
 70
    58
 90
        2
176
     0
 90
        2
176
     0
 90
        0
176
     0
 90
        0
176
     0
 40
0.6
176
     0
 40
30.0
176
     0
 62
     7
420
 16777215
176
     0
 90
        1
176
     0
 90
        4
176
     0
 62
     7
176
     0
 62
   257
176
     0
 90
        1
176
     0
 90
        1
176
     0
 40
1.0
176
     0
 90
       10
176
     2
 62
     7
176
     0
 40
1.0
176
     0
 90
        1
176
     0
 90
        6
176
     0
 90
        2
176
     0
 62
     7
176
     0
 90
        5
176
     0
 90
        0
176
     0
 90
        0
176
     0
290
     0
176
     0
 90
        1
176
     0
 40
0.0
176
     0
 90
        0
176
     0
290
     0
176
     0
290
     1
176
     0
290
     1
176
     0
290
     0
176
     0
290
     0
176
     0
290
     0
176
     0
290
     0
176
     0
290
     0
176
     0
290
     0
176
     0
 90
       50
176
     0
 40
0.0
176
     0
 40
1.0
176
     0
 90
        0
176
     0
 62
   178
420
        0
176
     0
 90
       50
176
     0
 90
        3
176
     0
 62
     5
420
      255
176
     0
290
     0
176
     0
 90
       50
176
     0
 90
       50
176
     0
 90
       50
176
     0
290
     0
176
     0
 90
       50
176
     0
 62
   256
176
     0
 40
1.0
176
     0
 90
        2
176
     0
  1
strokes_ogs.tif
176
     0
290
     0
176
     0
 40
1.0
176
     0
 40
1.0
176
     0
  0
VISUALSTYLE
  5
38
102
{ACAD_REACTORS
330
2A
102
}
330
2A
100
AcDbVisualStyle
  2
Linepattern
 70
    14
177
     3
291
     1
 70
    58
 90
        2
176
     1
 90
        2
176
     1
 90
        0
176
     1
 90
        0
176
     1
 40
-0.6
176
     1
 40
-30.0
176
     1
 62
     7
420
 16777215
176
     1
 90
        1
176
     1
 90
        4
176
     1
 62
     7
176
     1
 62
   257
176
     1
 90
        7
176
     1
 90
        7
176
     1
 40
1.0
176
     1
 90
        8
176
     1
 62
     7
176
     1
 40
1.0
176
     1
 90
        1
176
     1
 90
        6
176
     1
 90
        2
176
     1
 62
     7
176
     1
 90
        5
176
     1
 90
        0
176
     1
 90
        0
176
     1
290
     0
176
     1
 90
        1
176
     1
 40
0.0
176
     1
 90
        0
176
     1
290
     0
176
     1
290
     1
176
     1
290
     1
176
     1
290
     0
176
     1
290
     0
176
     1
290
     0
176
     1
290
     0
176
     1
290
     0
176
     1
290
     0
176
     1
 90
       50
176
     1
 40
0.0
176
     1
 40
1.0
176
     1
 90
        0
176
     1
 62
   178
420
        0
176
     1
 90
       50
176
     1
 90
        3
176
     1
 62
     5
420
      255
176
     1
290
     0
176
     1
 90
       50
176
     1
 90
       50
176
     1
 90
       50
176
     1
290
     0
176
     1
 90
       50
176
     1
 62
   256
176
     0
 40
1.0
176
     0
 90
        2
176
     1
  1
strokes_ogs.tif
176
     1
290
     0
176
     1
 40
1.0
176
     1
 40
1.0
176
     1
  0
VISUALSTYLE
  5
79
102
{ACAD_REACTORS
330
2A
102
}
330
2A
100
AcDbVisualStyle
  2
OverhangOff
 70
    21
177
     3
291
     1
 70
    58
 90
        2
176
     0
 90
        2
176
     0
 90
        0
176
     0
 90
        0
176
     0
 40
0.6
176
     0
 40
30.0
176
     0
 62
     7
420
 16777215
176
     0
 90
        1
176
     0
 90
        4
176
     0
 62
     7
176
     0
 62
   257
176
     0
 90
        1
176
     0
 90
        1
176
     0
 40
1.0
176
     0
 90
        9
176
     2
 62
     7
176
     0
 40
1.0
176
     0
 90
        1
176
     0
 90
        6
176
     0
 90
        2
176
     0
 62
     7
176
     0
 90
        5
176
     0
 90
        0
176
     0
 90
        0
176
     0
290
     0
176
     0
 90
        1
176
     0
 40
0.0
176
     0
 90
        0
176
     0
290
     0
176
     0
290
     1
176
     0
290
     1
176
     0
290
     0
176
     0
290
     0
176
     0
290
     0
176
     0
290
     0
176
     0
290
     0
176
     0
290
     0
176
     0
 90
       50
176
     0
 40
0.0
176
     0
 40
1.0
176
     0
 90
        0
176
     0
 62
   178
420
        0
176
     0
 90
       50
176
     0
 90
        3
176
     0
 62
     5
420
      255
176
     0
290
     0
176
     0
 90
       50
176
     0
 90
       50
176
     0
 90
       50
176
     0
290
     0
176
     0
 90
       50
176
     0
 62
   256
176
     0
 40
1.0
176
     0
 90
        2
176
     0
  1
strokes_ogs.tif
176
     0
290
     0
176
     0
 40
1.0
176
     0
 40
1.0
176
     0
  0
VISUALSTYLE
  5
33
102
{ACAD_REACTORS
330
2A
102
}
330
2A
100
AcDbVisualStyle
  2
Realistic
 70
     8
177
     3
291
     0
 70
    58
 90
        2
176
     1
 90
        2
176
     1
 90
        0
176
     1
 90
        0
176
     1
 40
-0.6
176
     1
 40
-30.0
176
     1
 62
     7
420
 16777215
176
     1
 90
        1
176
     1
 90
        0
176
     1
 62
     7
176
     1
 62
   257
176
     1
 90
        1
176
     1
 90
        1
176
     1
 40
1.0
176
     1
 90
        8
176
     1
 62
     8
420
  7895160
176
     1
 40
1.0
176
     1
 90
        1
176
     1
 90
        6
176
     1
 90
        2
176
     1
 62
     7
176
     1
 90
        5
176
     1
 90
        0
176
     1
 90
        0
176
     1
290
     0
176
     1
 90
       13
176
     1
 40
0.0
176
     1
 90
        0
176
     1
290
     0
176
     1
290
     1
176
     1
290
     1
176
     1
290
     0
176
     1
290
     0
176
     1
290
     0
176
     1
290
     0
176
     1
290
     0
176
     1
290
     0
176
     1
 90
       50
176
     1
 40
0.0
176
     1
 40
1.0
176
     1
 90
        0
176
     1
 62
   178
420
        0
176
     1
 90
       50
176
     1
 90
        3
176
     1
 62
     5
420
      255
176
     1
290
     0
176
     1
 90
       50
176
     1
 90
       50
176
     1
 90
       50
176
     1
290
     0
176
     1
 90
       50
176
     1
 62
   256
176
     0
 40
1.0
176
     0
 90
        2
176
     1
  1
strokes_ogs.tif
176
     1
290
     0
176
     1
 40
1.0
176
     1
 40
1.0
176
     1
  0
VISUALSTYLE
  5
7F
102
{ACAD_REACTORS
330
2A
102
}
330
2A
100
AcDbVisualStyle
  2
Shaded
 70
    27
177
     3
291
     0
 70
    58
 90
        2
176
     1
 90
        2
176
     1
 90
        1
176
     1
 90
        2
176
     1
 40
0.6
176
     1
 40
30.0
176
     1
 62
     7
420
 16777215
176
     1
 90
        0
176
     1
 90
        4
176
     1
 62
     7
176
     1
 62
   257
176
     1
 90
        1
176
     1
 90
        1
176
     1
 40
1.0
176
     1
 90
        8
176
     1
 62
   257
176
     1
 40
1.0
176
     1
 90
        1
176
     1
 90
        6
176
     1
 90
        2
176
     1
 62
     8
420
  7895160
176
     1
 90
        3
176
     1
 90
        0
176
     1
 90
        0
176
     1
290
     0
176
     1
 90
        5
176
     1
 40
0.0
176
     1
 90
        0
176
     1
290
     0
176
     1
290
     1
176
     1
290
     1
176
     1
290
     0
176
     1
290
     0
176
     1
290
     0
176
     1
290
     0
176
     1
290
     0
176
     1
290
     0
176
     1
 90
       50
176
     1
 40
0.0
176
     1
 40
1.0
176
     1
 90
        0
176
     1
 62
   178
420
        0
176
     1
 90
       50
176
     1
 90
        3
176
     1
 62
     5
420
      255
176
     1
290
     0
176
     1
 90
       50
176
     1
 90
       50
176
     1
 90
       50
176
     1
290
     0
176
     1
 90
       50
176
     1
 62
   256
176
     0
 40
1.0
176
     0
 90
        2
176
     1
  1
strokes_ogs.tif
176
     1
290
     0
176
     1
 40
1.0
176
     1
 40
1.0
176
     1
  0
VISUALSTYLE
  5
7E
102
{ACAD_REACTORS
330
2A
102
}
330
2A
100
AcDbVisualStyle
  2
Shaded with edges
 70
    26
177
     3
291
     0
 70
    58
 90
        2
176
     1
 90
        2
176
     1
 90
        1
176
     1
 90
        2
176
     1
 40
0.6
176
     1
 40
30.0
176
     1
 62
     7
420
 16777215
176
     1
 90
        1
176
     1
 90
       10
176
     1
 62
     7
176
     1
 62
   257
176
     1
 90
        2
176
     1
 90
        1
176
     1
 40
1.0
176
     1
 90
        8
176
     1
 62
   257
176
     1
 40
1.0
176
     1
 90
        1
176
     1
 90
        6
176
     1
 90
        2
176
     1
 62
     7
176
     1
 90
        3
176
     1
 90
        0
176
     1
 90
        0
176
     1
290
     0
176
     1
 90
        5
176
     1
 40
0.0
176
     1
 90
        0
176
     1
290
     0
176
     1
290
     1
176
     1
290
     1
176
     1
290
     0
176
     1
290
     0
176
     1
290
     0
176
     1
290
     0
176
     1
290
     0
176
     1
290
     0
176
     1
 90
       50
176
     1
 40
0.0
176
     1
 40
1.0
176
     1
 90
        0
176
     1
 62
   178
420
        0
176
     1
 90
       50
176
     1
 90
        3
176
     1
 62
     5
420
      255
176
     1
290
     0
176
     1
 90
       50
176
     1
 90
       50
176
     1
 90
       50
176
     1
290
     0
176
     1
 90
       50
176
     1
 62
   256
176
     0
 40
1.0
176
     0
 90
        2
176
     1
  1
strokes_ogs.tif
176
     1
290
     0
176
     1
 40
1.0
176
     1
 40
1.0
176
     1
  0
VISUALSTYLE
  5
7B
102
{ACAD_REACTORS
330
2A
102
}
330
2A
100
AcDbVisualStyle
  2
Shades of Gray
 70
    23
177
     3
291
     0
 70
    58
 90
        2
176
     1
 90
        2
176
     1
 90
        3
176
     1
 90
        0
176
     1
 40
0.6
176
     1
 40
30.0
176
     1
 62
     7
420
 16777215
176
     1
 90
        2
176
     1
 90
        2
176
     1
 62
     7
176
     1
 62
     7
176
     1
 90
        1
176
     1
 90
        1
176
     1
 40
40.0
176
     1
 90
        8
176
     1
 62
     7
176
     1
 40
1.0
176
     1
 90
        1
176
     1
 90
        6
176
     1
 90
        2
176
     1
 62
     7
176
     1
 90
        3
176
     1
 90
        0
176
     1
 90
        0
176
     1
290
     0
176
     1
 90
        1
176
     1
 40
0.0
176
     1
 90
        0
176
     1
290
     0
176
     1
290
     1
176
     1
290
     1
176
     1
290
     0
176
     1
290
     0
176
     1
290
     0
176
     1
290
     0
176
     1
290
     0
176
     1
290
     0
176
     1
 90
       50
176
     1
 40
0.0
176
     1
 40
1.0
176
     1
 90
        0
176
     1
 62
   178
420
        0
176
     1
 90
       50
176
     1
 90
        3
176
     1
 62
     5
420
      255
176
     1
290
     0
176
     1
 90
       50
176
     1
 90
       50
176
     1
 90
       50
176
     1
290
     0
176
     1
 90
       50
176
     1
 62
   256
176
     0
 40
1.0
176
     0
 90
        2
176
     1
  1
strokes_ogs.tif
176
     1
290
     0
176
     1
 40
1.0
176
     1
 40
1.0
176
     1
  0
VISUALSTYLE
  5
7C
102
{ACAD_REACTORS
330
2A
102
}
330
2A
100
AcDbVisualStyle
  2
Sketchy
 70
    24
177
     3
291
     0
 70
    58
 90
        1
176
     1
 90
        2
176
     1
 90
        2
176
     1
 90
        0
176
     1
 40
0.6
176
     1
 40
30.0
176
     1
 62
     7
420
 16777215
176
     1
 90
        2
176
     1
 90
        2
176
     1
 62
     7
176
     1
 62
     7
176
     1
 90
        1
176
     1
 90
        1
176
     1
 40
40.0
176
     1
 90
       11
176
     1
 62
     7
176
     1
 40
1.0
176
     1
 90
        1
176
     1
 90
        6
176
     1
 90
        2
176
     1
 62
     7
176
     1
 90
        6
176
     1
 90
        0
176
     1
 90
        0
176
     1
290
     0
176
     1
 90
        1
176
     1
 40
0.0
176
     1
 90
        0
176
     1
290
     0
176
     1
290
     1
176
     1
290
     1
176
     1
290
     0
176
     1
290
     0
176
     1
290
     0
176
     1
290
     0
176
     1
290
     0
176
     1
290
     0
176
     1
 90
       50
176
     1
 40
0.0
176
     1
 40
1.0
176
     1
 90
        0
176
     1
 62
   178
420
        0
176
     1
 90
       50
176
     1
 90
        3
176
     1
 62
     5
420
      255
176
     1
290
     0
176
     1
 90
       50
176
     1
 90
       50
176
     1
 90
       50
176
     1
290
     0
176
     1
 90
       50
176
     1
 62
   256
176
     0
 40
1.0
176
     0
 90
        2
176
     1
  1
strokes_ogs.tif
176
     1
290
     0
176
     1
 40
1.0
176
     1
 40
1.0
176
     1
  0
VISUALSTYLE
  5
37
102
{ACAD_REACTORS
330
2A
102
}
330
2A
100
AcDbVisualStyle
  2
Thicken
 70
    13
177
     3
291
     1
 70
    58
 90
        2
176
     1
 90
        2
176
     1
 90
        0
176
     1
 90
        0
176
     1
 40
-0.6
176
     1
 40
-30.0
176
     1
 62
     7
420
 16777215
176
     1
 90
        1
176
     1
 90
        4
176
     1
 62
     7
176
     1
 62
   257
176
     1
 90
        1
176
     1
 90
        1
176
     1
 40
1.0
176
     1
 90
       12
176
     1
 62
     7
176
     1
 40
1.0
176
     1
 90
        1
176
     1
 90
        6
176
     1
 90
        2
176
     1
 62
     7
176
     1
 90
        5
176
     1
 90
        0
176
     1
 90
        0
176
     1
290
     0
176
     1
 90
        1
176
     1
 40
0.0
176
     1
 90
        0
176
     1
290
     0
176
     1
290
     1
176
     1
290
     1
176
     1
290
     0
176
     1
290
     0
176
     1
290
     0
176
     1
290
     0
176
     1
290
     0
176
     1
290
     0
176
     1
 90
       50
176
     1
 40
0.0
176
     1
 40
1.0
176
     1
 90
        0
176
     1
 62
   178
420
        0
176
     1
 90
       50
176
     1
 90
        3
176
     1
 62
     5
420
      255
176
     1
290
     0
176
     1
 90
       50
176
     1
 90
       50
176
     1
 90
       50
176
     1
290
     0
176
     1
 90
       50
176
     1
 62
   256
176
     0
 40
1.0
176
     0
 90
        2
176
     1
  1
strokes_ogs.tif
176
     1
290
     0
176
     1
 40
1.0
176
     1
 40
1.0
176
     1
  0
VISUALSTYLE
  5
76
102
{ACAD_REACTORS
330
2A
102
}
330
2A
100
AcDbVisualStyle
  2
Wireframe
 70
     5
177
     3
291
     0
 70
    58
 90
        0
176
     1
 90
        2
176
     1
 90
        0
176
     1
 90
        0
176
     1
 40
0.6
176
     1
 40
30.0
176
     1
 62
     7
420
 16777215
176
     1
 90
        1
176
     1
 90
        4
176
     1
 62
     7
176
     1
 62
   257
176
     1
 90
        1
176
     1
 90
        1
176
     1
 40
1.0
176
     1
 90
        0
176
     1
 62
   257
176
     1
 40
1.0
176
     1
 90
        1
176
     1
 90
        6
176
     1
 90
        2
176
     1
 62
     7
176
     1
 90
        3
176
     1
 90
        0
176
     1
 90
        0
176
     1
290
     0
176
     1
 90
        1
176
     1
 40
0.0
176
     1
 90
        0
176
     1
290
     0
176
     1
290
     1
176
     1
290
     1
176
     1
290
     0
176
     1
290
     0
176
     1
290
     0
176
     1
290
     0
176
     1
290
     0
176
     1
290
     0
176
     1
 90
       50
176
     1
 40
0.0
176
     1
 40
1.0
176
     1
 90
        0
176
     1
 62
   178
420
        0
176
     1
 90
       50
176
     1
 90
        3
176
     1
 62
     5
420
      255
176
     1
290
     0
176
     1
 90
       50
176
     1
 90
       50
176
     1
 90
       50
176
     1
290
     0
176
     1
 90
       50
176
     1
 62
   256
176
     0
 40
1.0
176
     0
 90
        2
176
     1
  1
strokes_ogs.tif
176
     1
290
     0
176
     1
 40
1.0
176
     1
 40
1.0
176
     1
  0
VISUALSTYLE
  5
7D
102
{ACAD_REACTORS
330
2A
102
}
330
2A
100
AcDbVisualStyle
  2
X-Ray
 70
    25
177
     3
291
     0
 70
    58
 90
        2
176
     1
 90
        2
176
     1
 90
        1
176
     1
 90
        1
176
     1
 40
0.5
176
     1
 40
30.0
176
     1
 62
     7
420
 16777215
176
     1
 90
        1
176
     1
 90
        0
176
     1
 62
     7
176
     1
 62
   257
176
     1
 90
        1
176
     1
 90
        1
176
     1
 40
1.0
176
     1
 90
        8
176
     1
 62
     7
176
     1
 40
1.0
176
     1
 90
        1
176
     1
 90
        6
176
     1
 90
        2
176
     1
 62
     7
176
     1
 90
        3
176
     1
 90
        0
176
     1
 90
        0
176
     1
290
     0
176
     1
 90
       13
176
     1
 40
0.0
176
     1
 90
        0
176
     1
290
     0
176
     1
290
     1
176
     1
290
     1
176
     1
290
     0
176
     1
290
     0
176
     1
290
     0
176
     1
290
     0
176
     1
290
     0
176
     1
290
     0
176
     1
 90
       50
176
     1
 40
0.0
176
     1
 40
1.0
176
     1
 90
        0
176
     1
 62
   178
420
        0
176
     1
 90
       50
176
     1
 90
        3
176
     1
 62
     5
420
      255
176
     1
290
     0
176
     1
 90
       50
176
     1
 90
       50
176
     1
 90
       50
176
     1
290
     0
176
     1
 90
       50
176
     1
 62
   256
176
     0
 40
1.0
176
     0
 90
        2
176
     1
  1
strokes_ogs.tif
176
     1
290
     0
176
     1
 40
1.0
176
     1
 40
1.0
176
     1
  0
DICTIONARYVAR
  5
62
102
{ACAD_REACTORS
330
3D
102
}
330
3D
100
DictionaryVariables
280
     0
  1
1:1
  0
DICTIONARYVAR
  5
BB
102
{ACAD_REACTORS
330
3D
102
}
330
3D
100
DictionaryVariables
280
     0
  1
Standard
  0
DICTIONARYVAR
  5
3E
102
{ACAD_REACTORS
330
3D
102
}
330
3D
100
DictionaryVariables
280
     0
  1
Standard
  0
DICTIONARYVAR
  5
6F
102
{ACAD_REACTORS
330
3D
102
}
330
3D
100
DictionaryVariables
280
     0
  1
0
  0
DICTIONARYVAR
  5
70
102
{ACAD_REACTORS
330
3D
102
}
330
3D
100
DictionaryVariables
280
     0
  1
0
  0
DICTIONARY
  5
18D1
330
3C
100
AcDbDictionary
280
     1
281
     1
  3
ACAD_ROUNDTRIP_2008_TABLESTYLE_CELLSTYLEMAP
360
18D2
  0
CELLSTYLEMAP
  5
18D2
102
{ACAD_REACTORS
330
18D1
102
}
330
18D1
100
AcDbCellStyleMap
 90
        3
300
CELLSTYLE
  1
TABLEFORMAT_BEGIN
 90
        5
170
     1
 91
        0
 92
    32768
 62
   257
 93
        1
300
CONTENTFORMAT
  1
CONTENTFORMAT_BEGIN
 90
        0
 91
        0
 92
      512
 93
        0
300

 40
0.0
140
1.0
 94
        5
 62
     0
340
11
144
6.0
309
CONTENTFORMAT_END
171
     1
301
MARGIN
  1
CELLMARGIN_BEGIN
 40
1.5
 40
1.5
 40
1.5
 40
1.5
 40
0.18
 40
0.18
309
CELLMARGIN_END
 94
        6
 95
        1
302
GRIDFORMAT
  1
GRIDFORMAT_BEGIN
 90
        0
 91
        1
 62
     0
 92
       -2
340
0
 93
        0
 40
0.045
309
GRIDFORMAT_END
 95
        2
302
GRIDFORMAT
  1
GRIDFORMAT_BEGIN
 90
        0
 91
        1
 62
     0
 92
       -2
340
0
 93
        0
 40
0.045
309
GRIDFORMAT_END
 95
        4
302
GRIDFORMAT
  1
GRIDFORMAT_BEGIN
 90
        0
 91
        1
 62
     0
 92
       -2
340
0
 93
        0
 40
0.045
309
GRIDFORMAT_END
 95
        8
302
GRIDFORMAT
  1
GRIDFORMAT_BEGIN
 90
        0
 91
        1
 62
     0
 92
       -2
340
0
 93
        0
 40
0.045
309
GRIDFORMAT_END
 95
       16
302
GRIDFORMAT
  1
GRIDFORMAT_BEGIN
 90
        0
 91
        1
 62
     0
 92
       -2
340
0
 93
        0
 40
0.045
309
GRIDFORMAT_END
 95
       32
302
GRIDFORMAT
  1
GRIDFORMAT_BEGIN
 90
        0
 91
        1
 62
     0
 92
       -2
340
0
 93
        0
 40
0.045
309
GRIDFORMAT_END
309
TABLEFORMAT_END
  1
CELLSTYLE_BEGIN
 90
        1
 91
        1
300
_TITLE
309
CELLSTYLE_END
300
CELLSTYLE
  1
TABLEFORMAT_BEGIN
 90
        5
170
     1
 91
        0
 92
        0
 62
   257
 93
        1
300
CONTENTFORMAT
  1
CONTENTFORMAT_BEGIN
 90
        0
 91
        0
 92
      512
 93
        0
300

 40
0.0
140
1.0
 94
        5
 62
     0
340
11
144
4.5
309
CONTENTFORMAT_END
171
     1
301
MARGIN
  1
CELLMARGIN_BEGIN
 40
1.5
 40
1.5
 40
1.5
 40
1.5
 40
0.18
 40
0.18
309
CELLMARGIN_END
 94
        6
 95
        1
302
GRIDFORMAT
  1
GRIDFORMAT_BEGIN
 90
        0
 91
        1
 62
     0
 92
       -2
340
0
 93
        0
 40
0.045
309
GRIDFORMAT_END
 95
        2
302
GRIDFORMAT
  1
GRIDFORMAT_BEGIN
 90
        0
 91
        1
 62
     0
 92
       -2
340
0
 93
        0
 40
0.045
309
GRIDFORMAT_END
 95
        4
302
GRIDFORMAT
  1
GRIDFORMAT_BEGIN
 90
        0
 91
        1
 62
     0
 92
       -2
340
0
 93
        0
 40
0.045
309
GRIDFORMAT_END
 95
        8
302
GRIDFORMAT
  1
GRIDFORMAT_BEGIN
 90
        0
 91
        1
 62
     0
 92
       -2
340
0
 93
        0
 40
0.045
309
GRIDFORMAT_END
 95
       16
302
GRIDFORMAT
  1
GRIDFORMAT_BEGIN
 90
        0
 91
        1
 62
     0
 92
       -2
340
0
 93
        0
 40
0.045
309
GRIDFORMAT_END
 95
       32
302
GRIDFORMAT
  1
GRIDFORMAT_BEGIN
 90
        0
 91
        1
 62
     0
 92
       -2
340
0
 93
        0
 40
0.045
309
GRIDFORMAT_END
309
TABLEFORMAT_END
  1
CELLSTYLE_BEGIN
 90
        2
 91
        1
300
_HEADER
309
CELLSTYLE_END
300
CELLSTYLE
  1
TABLEFORMAT_BEGIN
 90
        5
170
     1
 91
        0
 92
        0
 62
   257
 93
        1
300
CONTENTFORMAT
  1
CONTENTFORMAT_BEGIN
 90
        0
 91
        0
 92
      512
 93
        0
300

 40
0.0
140
1.0
 94
        2
 62
     0
340
11
144
4.5
309
CONTENTFORMAT_END
171
     1
301
MARGIN
  1
CELLMARGIN_BEGIN
 40
1.5
 40
1.5
 40
1.5
 40
1.5
 40
0.18
 40
0.18
309
CELLMARGIN_END
 94
        6
 95
        1
302
GRIDFORMAT
  1
GRIDFORMAT_BEGIN
 90
        0
 91
        1
 62
     0
 92
       -2
340
0
 93
        0
 40
0.045
309
GRIDFORMAT_END
 95
        2
302
GRIDFORMAT
  1
GRIDFORMAT_BEGIN
 90
        0
 91
        1
 62
     0
 92
       -2
340
0
 93
        0
 40
0.045
309
GRIDFORMAT_END
 95
        4
302
GRIDFORMAT
  1
GRIDFORMAT_BEGIN
 90
        0
 91
        1
 62
     0
 92
       -2
340
0
 93
        0
 40
0.045
309
GRIDFORMAT_END
 95
        8
302
GRIDFORMAT
  1
GRIDFORMAT_BEGIN
 90
        0
 91
        1
 62
     0
 92
       -2
340
0
 93
        0
 40
0.045
309
GRIDFORMAT_END
 95
       16
302
GRIDFORMAT
  1
GRIDFORMAT_BEGIN
 90
        0
 91
        1
 62
     0
 92
       -2
340
0
 93
        0
 40
0.045
309
GRIDFORMAT_END
 95
       32
302
GRIDFORMAT
  1
GRIDFORMAT_BEGIN
 90
        0
 91
        1
 62
     0
 92
       -2
340
0
 93
        0
 40
0.045
309
GRIDFORMAT_END
309
TABLEFORMAT_END
  1
CELLSTYLE_BEGIN
 90
        3
 91
        2
300
_DATA
309
CELLSTYLE_END
  0
ENDSEC
  0
EOF
