0
SECTION
2
HEADER
9
$ACADVER
1
AC1009
9
$TEXTSTYLE
7
STANDARD
9
$CECOLOR
62
256
9
$AUNITS
70
0
9
$LUNITS
70
3
9
$EXTMIN
10
253.2500000
20
477.8750000
9
$EXTMAX
10
381.2500000
20
545.0000000
9
$FILLMODE
70
1
0
ENDSEC
0
SECTION
2
TABLES
0
TABLE
2
LAYER
70
3
0
LAYER
2
Board
70
64
62
3
6
CONTINUOUS
0
LAYER
2
Top_Mask
70
64
62
4
6
CONTINUOUS
0
LAYER
2
Top_Silk
70
64
62
6
6
CONTINUOUS
0
LAYER
2
Drill_Layer
70
64
62
255
6
CONTINUOUS
0
ENDTAB
0
ENDSEC
0
SECTION
2
BLOCKS
0
BLOCK
2
UNIT_DISC
8
0
70
0
10
0.0000000
20
0.0000000
0
POLYLINE
8
0
6
CONTINUOUS
66
1
70
1
40
0.5000000
41
0.5000000
0
VERTEX
8
0
10
0.2500000
20
0.0000000
42
1.0000000
0
VERTEX
8
0
10
-0.2500000
20
0.0000000
42
1.0000000
0
SEQEND
0
ENDBLK
0
BLOCK
2
UNIT_CIRCLE
8
0
70
0
10
0.0000000
20
0.0000000
0
CIRCLE
8
0
6
CONTINUOUS
10
0.0000000
20
0.0000000
40
0.5000000
0
ENDBLK
0
BLOCK
2
SHAPE_EL_246_246_0_0_0_0
8
0
70
0
10
0.0000000
20
0.0000000
0
INSERT
8
0
2
UNIT_CIRCLE
10
0.0000000
20
0.0000000
41
0.6270000
42
0.6270000
43
0.6270000
50
0.0000000
0
ENDBLK
0
BLOCK
2
SHAPE_OV_640_640_0_0_0_0
8
0
70
0
10
0.0000000
20
0.0000000
0
ARC
8
0
6
CONTINUOUS
10
0.0000000
20
0.0000000
40
0.8135000
50
270.0000000
51
90.0000000
0
ARC
8
0
6
CONTINUOUS
10
0.0000000
20
0.0000000
40
0.8135000
50
90.0000000
51
270.0000000
0
ENDBLK
0
BLOCK
2
SHAPE_EL_601_601_0_0_0_0
8
0
70
0
10
0.0000000
20
0.0000000
0
INSERT
8
0
2
UNIT_CIRCLE
10
0.0000000
20
0.0000000
41
1.5270000
42
1.5270000
43
1.5270000
50
0.0000000
0
ENDBLK
0
BLOCK
2
SHAPE_SQ_364_364_0_0_0_0
8
0
70
0
10
0.0000000
20
0.0000000
0
LINE
8
0
6
CONTINUOUS
10
-0.4635000
20
-0.4635000
11
0.4635000
21
-0.4635000
0
LINE
8
0
6
CONTINUOUS
10
0.4635000
20
-0.4635000
11
0.4635000
21
0.4635000
0
LINE
8
0
6
CONTINUOUS
10
0.4635000
20
0.4635000
11
-0.4635000
21
0.4635000
0
LINE
8
0
6
CONTINUOUS
10
-0.4635000
20
0.4635000
11
-0.4635000
21
-0.4635000
0
ENDBLK
0
BLOCK
2
SHAPE_EL_443_443_0_0_0_0
8
0
70
0
10
0.0000000
20
0.0000000
0
INSERT
8
0
2
UNIT_CIRCLE
10
0.0000000
20
0.0000000
41
1.1270000
42
1.1270000
43
1.1270000
50
0.0000000
0
ENDBLK
0
BLOCK
2
SHAPE_SQ_450_650_0_0_0_0
8
0
70
0
10
0.0000000
20
0.0000000
0
LINE
8
0
6
CONTINUOUS
10
-0.5715000
20
-0.8255000
11
0.5715000
21
-0.8255000
0
LINE
8
0
6
CONTINUOUS
10
0.5715000
20
-0.8255000
11
0.5715000
21
0.8255000
0
LINE
8
0
6
CONTINUOUS
10
0.5715000
20
0.8255000
11
-0.5715000
21
0.8255000
0
LINE
8
0
6
CONTINUOUS
10
-0.5715000
20
0.8255000
11
-0.5715000
21
-0.8255000
0
ENDBLK
0
BLOCK
2
SHAPE_RR_522_640_0_0_0_0
8
0
70
0
10
0.0000000
20
0.0000000
0
ARC
8
0
6
CONTINUOUS
10
0.3317500
20
0.4817500
40
0.3317500
50
0.0000000
51
90.0000000
0
LINE
8
0
6
CONTINUOUS
10
0.3317500
20
0.8135000
11
-0.3317500
21
0.8135000
0
ARC
8
0
6
CONTINUOUS
10
-0.3317500
20
0.4817500
40
0.3317500
50
90.0000000
51
180.0000000
0
LINE
8
0
6
CONTINUOUS
10
-0.6635000
20
0.4817500
11
-0.6635000
21
-0.4817500
0
ARC
8
0
6
CONTINUOUS
10
-0.3317500
20
-0.4817500
40
0.3317500
50
180.0000000
51
270.0000000
0
LINE
8
0
6
CONTINUOUS
10
-0.3317500
20
-0.8135000
11
0.3317500
21
-0.8135000
0
ARC
8
0
6
CONTINUOUS
10
0.3317500
20
-0.4817500
40
0.3317500
50
270.0000000
51
0.0000000
0
LINE
8
0
6
CONTINUOUS
10
0.6635000
20
-0.4817500
11
0.6635000
21
0.4817500
0
ENDBLK
0
BLOCK
2
SHAPE_SQ_158_158_0_0_0_0
8
0
70
0
10
0.0000000
20
0.0000000
0
LINE
8
0
6
CONTINUOUS
10
-0.2010000
20
-0.2010000
11
0.2010000
21
-0.2010000
0
LINE
8
0
6
CONTINUOUS
10
0.2010000
20
-0.2010000
11
0.2010000
21
0.2010000
0
LINE
8
0
6
CONTINUOUS
10
0.2010000
20
0.2010000
11
-0.2010000
21
0.2010000
0
LINE
8
0
6
CONTINUOUS
10
-0.2010000
20
0.2010000
11
-0.2010000
21
-0.2010000
0
ENDBLK
0
BLOCK
2
SHAPE_EL_800_800_0_0_0_0
8
0
70
0
10
0.0000000
20
0.0000000
0
INSERT
8
0
2
UNIT_CIRCLE
10
0.0000000
20
0.0000000
41
2.0320000
42
2.0320000
43
2.0320000
50
0.0000000
0
ENDBLK
0
BLOCK
2
SHAPE_SQ_640_640_0_0_0_0
8
0
70
0
10
0.0000000
20
0.0000000
0
LINE
8
0
6
CONTINUOUS
10
-0.8135000
20
-0.8135000
11
0.8135000
21
-0.8135000
0
LINE
8
0
6
CONTINUOUS
10
0.8135000
20
-0.8135000
11
0.8135000
21
0.8135000
0
LINE
8
0
6
CONTINUOUS
10
0.8135000
20
0.8135000
11
-0.8135000
21
0.8135000
0
LINE
8
0
6
CONTINUOUS
10
-0.8135000
20
0.8135000
11
-0.8135000
21
-0.8135000
0
ENDBLK
0
BLOCK
2
SHAPE_SQ_345_2805_0_0_0_0
8
0
70
0
10
0.0000000
20
0.0000000
0
LINE
8
0
6
CONTINUOUS
10
-0.4385000
20
-3.5635000
11
0.4385000
21
-3.5635000
0
LINE
8
0
6
CONTINUOUS
10
0.4385000
20
-3.5635000
11
0.4385000
21
3.5635000
0
LINE
8
0
6
CONTINUOUS
10
0.4385000
20
3.5635000
11
-0.4385000
21
3.5635000
0
LINE
8
0
6
CONTINUOUS
10
-0.4385000
20
3.5635000
11
-0.4385000
21
-3.5635000
0
ENDBLK
0
BLOCK
2
SHAPE_SQ_370_370_0_0_0_0
8
0
70
0
10
0.0000000
20
0.0000000
0
LINE
8
0
6
CONTINUOUS
10
-0.4699000
20
-0.4699000
11
0.4699000
21
-0.4699000
0
LINE
8
0
6
CONTINUOUS
10
0.4699000
20
-0.4699000
11
0.4699000
21
0.4699000
0
LINE
8
0
6
CONTINUOUS
10
0.4699000
20
0.4699000
11
-0.4699000
21
0.4699000
0
LINE
8
0
6
CONTINUOUS
10
-0.4699000
20
0.4699000
11
-0.4699000
21
-0.4699000
0
ENDBLK
0
BLOCK
2
SHAPE_EL_640_640_0_0_0_0
8
0
70
0
10
0.0000000
20
0.0000000
0
INSERT
8
0
2
UNIT_CIRCLE
10
0.0000000
20
0.0000000
41
1.6270000
42
1.6270000
43
1.6270000
50
0.0000000
0
ENDBLK
0
BLOCK
2
SHAPE_SQ_330_330_0_0_0_0
8
0
70
0
10
0.0000000
20
0.0000000
0
LINE
8
0
6
CONTINUOUS
10
-0.4191000
20
-0.4191000
11
0.4191000
21
-0.4191000
0
LINE
8
0
6
CONTINUOUS
10
0.4191000
20
-0.4191000
11
0.4191000
21
0.4191000
0
LINE
8
0
6
CONTINUOUS
10
0.4191000
20
0.4191000
11
-0.4191000
21
0.4191000
0
LINE
8
0
6
CONTINUOUS
10
-0.4191000
20
0.4191000
11
-0.4191000
21
-0.4191000
0
ENDBLK
0
BLOCK
2
SHAPE_SQ_384_837_0_0_0_0
8
0
70
0
10
0.0000000
20
0.0000000
0
LINE
8
0
6
CONTINUOUS
10
-0.4885000
20
-1.0635000
11
0.4885000
21
-1.0635000
0
LINE
8
0
6
CONTINUOUS
10
0.4885000
20
-1.0635000
11
0.4885000
21
1.0635000
0
LINE
8
0
6
CONTINUOUS
10
0.4885000
20
1.0635000
11
-0.4885000
21
1.0635000
0
LINE
8
0
6
CONTINUOUS
10
-0.4885000
20
1.0635000
11
-0.4885000
21
-1.0635000
0
ENDBLK
0
BLOCK
2
SHAPE_SQ_950_640_0_0_0_0
8
0
70
0
10
0.0000000
20
0.0000000
0
LINE
8
0
6
CONTINUOUS
10
-1.2065000
20
-0.8135000
11
1.2065000
21
-0.8135000
0
LINE
8
0
6
CONTINUOUS
10
1.2065000
20
-0.8135000
11
1.2065000
21
0.8135000
0
LINE
8
0
6
CONTINUOUS
10
1.2065000
20
0.8135000
11
-1.2065000
21
0.8135000
0
LINE
8
0
6
CONTINUOUS
10
-1.2065000
20
0.8135000
11
-1.2065000
21
-0.8135000
0
ENDBLK
0
BLOCK
2
SHAPE_SQ_719_640_0_0_0_0
8
0
70
0
10
0.0000000
20
0.0000000
0
LINE
8
0
6
CONTINUOUS
10
-0.9135000
20
-0.8135000
11
0.9135000
21
-0.8135000
0
LINE
8
0
6
CONTINUOUS
10
0.9135000
20
-0.8135000
11
0.9135000
21
0.8135000
0
LINE
8
0
6
CONTINUOUS
10
0.9135000
20
0.8135000
11
-0.9135000
21
0.8135000
0
LINE
8
0
6
CONTINUOUS
10
-0.9135000
20
0.8135000
11
-0.9135000
21
-0.8135000
0
ENDBLK
0
BLOCK
2
SHAPE_SQ_483_148_0_0_0_0
8
0
70
0
10
0.0000000
20
0.0000000
0
LINE
8
0
6
CONTINUOUS
10
-0.6135000
20
-0.1885000
11
0.6135000
21
-0.1885000
0
LINE
8
0
6
CONTINUOUS
10
0.6135000
20
-0.1885000
11
0.6135000
21
0.1885000
0
LINE
8
0
6
CONTINUOUS
10
0.6135000
20
0.1885000
11
-0.6135000
21
0.1885000
0
LINE
8
0
6
CONTINUOUS
10
-0.6135000
20
0.1885000
11
-0.6135000
21
-0.1885000
0
ENDBLK
0
BLOCK
2
SHAPE_EL_2018_2018_0_0_0_0
8
0
70
0
10
0.0000000
20
0.0000000
0
INSERT
8
0
2
UNIT_CIRCLE
10
0.0000000
20
0.0000000
41
5.1270000
42
5.1270000
43
5.1270000
50
0.0000000
0
ENDBLK
0
BLOCK
2
SHAPE_SQ_850_310_0_0_0_0
8
0
70
0
10
0.0000000
20
0.0000000
0
LINE
8
0
6
CONTINUOUS
10
-1.0795000
20
-0.3937000
11
1.0795000
21
-0.3937000
0
LINE
8
0
6
CONTINUOUS
10
1.0795000
20
-0.3937000
11
1.0795000
21
0.3937000
0
LINE
8
0
6
CONTINUOUS
10
1.0795000
20
0.3937000
11
-1.0795000
21
0.3937000
0
LINE
8
0
6
CONTINUOUS
10
-1.0795000
20
0.3937000
11
-1.0795000
21
-0.3937000
0
ENDBLK
0
BLOCK
2
SHAPE_SQ_246_679_0_0_0_0
8
0
70
0
10
0.0000000
20
0.0000000
0
LINE
8
0
6
CONTINUOUS
10
-0.3135000
20
-0.8635000
11
0.3135000
21
-0.8635000
0
LINE
8
0
6
CONTINUOUS
10
0.3135000
20
-0.8635000
11
0.3135000
21
0.8635000
0
LINE
8
0
6
CONTINUOUS
10
0.3135000
20
0.8635000
11
-0.3135000
21
0.8635000
0
LINE
8
0
6
CONTINUOUS
10
-0.3135000
20
0.8635000
11
-0.3135000
21
-0.8635000
0
ENDBLK
0
BLOCK
2
SHAPE_SQ_601_640_0_0_0_0
8
0
70
0
10
0.0000000
20
0.0000000
0
LINE
8
0
6
CONTINUOUS
10
-0.7635000
20
-0.8135000
11
0.7635000
21
-0.8135000
0
LINE
8
0
6
CONTINUOUS
10
0.7635000
20
-0.8135000
11
0.7635000
21
0.8135000
0
LINE
8
0
6
CONTINUOUS
10
0.7635000
20
0.8135000
11
-0.7635000
21
0.8135000
0
LINE
8
0
6
CONTINUOUS
10
-0.7635000
20
0.8135000
11
-0.7635000
21
-0.8135000
0
ENDBLK
0
BLOCK
2
SHAPE_EL_404_404_0_0_0_0
8
0
70
0
10
0.0000000
20
0.0000000
0
INSERT
8
0
2
UNIT_CIRCLE
10
0.0000000
20
0.0000000
41
1.0270000
42
1.0270000
43
1.0270000
50
0.0000000
0
ENDBLK
0
BLOCK
2
SHAPE_SQ_601_148_0_0_0_0
8
0
70
0
10
0.0000000
20
0.0000000
0
LINE
8
0
6
CONTINUOUS
10
-0.7635000
20
-0.1885000
11
0.7635000
21
-0.1885000
0
LINE
8
0
6
CONTINUOUS
10
0.7635000
20
-0.1885000
11
0.7635000
21
0.1885000
0
LINE
8
0
6
CONTINUOUS
10
0.7635000
20
0.1885000
11
-0.7635000
21
0.1885000
0
LINE
8
0
6
CONTINUOUS
10
-0.7635000
20
0.1885000
11
-0.7635000
21
-0.1885000
0
ENDBLK
0
BLOCK
2
SHAPE_PL_956_1094_0_0_0_0
8
0
70
0
10
0.0000000
20
0.0000000
0
LINE
8
0
6
CONTINUOUS
10
-1.2400800
20
-1.2019600
11
-1.1769600
21
-1.2650800
0
LINE
8
0
6
CONTINUOUS
10
-1.1769600
20
-1.2650800
11
1.1269600
21
-1.2650800
0
LINE
8
0
6
CONTINUOUS
10
1.1269600
20
-1.2650800
11
1.1900800
21
-1.2019600
0
LINE
8
0
6
CONTINUOUS
10
1.1900800
20
-1.2019600
11
1.1900800
21
0.0519600
0
LINE
8
0
6
CONTINUOUS
10
1.1900800
20
0.0519600
11
1.1269600
21
0.1150800
0
LINE
8
0
6
CONTINUOUS
10
1.1269600
20
0.1150800
11
0.4900800
21
0.1150800
0
LINE
8
0
6
CONTINUOUS
10
0.4900800
20
0.1150800
11
0.4900800
21
1.4519600
0
LINE
8
0
6
CONTINUOUS
10
0.4900800
20
1.4519600
11
0.4269600
21
1.5150800
0
LINE
8
0
6
CONTINUOUS
10
0.4269600
20
1.5150800
11
-0.4769600
21
1.5150800
0
LINE
8
0
6
CONTINUOUS
10
-0.4769600
20
1.5150800
11
-0.5400800
21
1.4519600
0
LINE
8
0
6
CONTINUOUS
10
-0.5400800
20
1.4519600
11
-0.5400800
21
1.0150800
0
LINE
8
0
6
CONTINUOUS
10
-0.5400800
20
1.0150800
11
-1.1769600
21
1.0150800
0
LINE
8
0
6
CONTINUOUS
10
-1.1769600
20
1.0150800
11
-1.2400800
21
0.9519600
0
LINE
8
0
6
CONTINUOUS
10
-1.2400800
20
0.9519600
11
-1.2400800
21
-1.2019600
0
ENDBLK
0
BLOCK
2
SHAPE_PL_956_1094_0_0_0_1
8
0
70
0
10
0.0000000
20
0.0000000
0
LINE
8
0
6
CONTINUOUS
10
-1.2400800
20
-1.2019600
11
-1.1769600
21
-1.2650800
0
LINE
8
0
6
CONTINUOUS
10
-1.1769600
20
-1.2650800
11
1.1269600
21
-1.2650800
0
LINE
8
0
6
CONTINUOUS
10
1.1269600
20
-1.2650800
11
1.1900800
21
-1.2019600
0
LINE
8
0
6
CONTINUOUS
10
1.1900800
20
-1.2019600
11
1.1900800
21
0.9519600
0
LINE
8
0
6
CONTINUOUS
10
1.1900800
20
0.9519600
11
1.1269600
21
1.0150800
0
LINE
8
0
6
CONTINUOUS
10
1.1269600
20
1.0150800
11
0.4900800
21
1.0150800
0
LINE
8
0
6
CONTINUOUS
10
0.4900800
20
1.0150800
11
0.4900800
21
1.4519600
0
LINE
8
0
6
CONTINUOUS
10
0.4900800
20
1.4519600
11
0.4269600
21
1.5150800
0
LINE
8
0
6
CONTINUOUS
10
0.4269600
20
1.5150800
11
-0.4769600
21
1.5150800
0
LINE
8
0
6
CONTINUOUS
10
-0.4769600
20
1.5150800
11
-0.5400800
21
1.4519600
0
LINE
8
0
6
CONTINUOUS
10
-0.5400800
20
1.4519600
11
-0.5400800
21
0.1150800
0
LINE
8
0
6
CONTINUOUS
10
-0.5400800
20
0.1150800
11
-1.1769600
21
0.1150800
0
LINE
8
0
6
CONTINUOUS
10
-1.1769600
20
0.1150800
11
-1.2400800
21
0.0519600
0
LINE
8
0
6
CONTINUOUS
10
-1.2400800
20
0.0519600
11
-1.2400800
21
-1.2019600
0
ENDBLK
0
BLOCK
2
SHAPE_SQ_325_522_0_0_0_0
8
0
70
0
10
0.0000000
20
0.0000000
0
LINE
8
0
6
CONTINUOUS
10
-0.4135000
20
-0.6635000
11
0.4135000
21
-0.6635000
0
LINE
8
0
6
CONTINUOUS
10
0.4135000
20
-0.6635000
11
0.4135000
21
0.6635000
0
LINE
8
0
6
CONTINUOUS
10
0.4135000
20
0.6635000
11
-0.4135000
21
0.6635000
0
LINE
8
0
6
CONTINUOUS
10
-0.4135000
20
0.6635000
11
-0.4135000
21
-0.6635000
0
ENDBLK
0
BLOCK
2
SHAPE_SQ_561_798_0_0_0_0
8
0
70
0
10
0.0000000
20
0.0000000
0
LINE
8
0
6
CONTINUOUS
10
-0.7135000
20
-1.0135000
11
0.7135000
21
-1.0135000
0
LINE
8
0
6
CONTINUOUS
10
0.7135000
20
-1.0135000
11
0.7135000
21
1.0135000
0
LINE
8
0
6
CONTINUOUS
10
0.7135000
20
1.0135000
11
-0.7135000
21
1.0135000
0
LINE
8
0
6
CONTINUOUS
10
-0.7135000
20
1.0135000
11
-0.7135000
21
-1.0135000
0
ENDBLK
0
BLOCK
2
SHAPE_SQ_443_522_0_0_0_0
8
0
70
0
10
0.0000000
20
0.0000000
0
LINE
8
0
6
CONTINUOUS
10
-0.5635000
20
-0.6635000
11
0.5635000
21
-0.6635000
0
LINE
8
0
6
CONTINUOUS
10
0.5635000
20
-0.6635000
11
0.5635000
21
0.6635000
0
LINE
8
0
6
CONTINUOUS
10
0.5635000
20
0.6635000
11
-0.5635000
21
0.6635000
0
LINE
8
0
6
CONTINUOUS
10
-0.5635000
20
0.6635000
11
-0.5635000
21
-0.6635000
0
ENDBLK
0
BLOCK
2
SHAPE_SQ_364_443_0_0_0_0
8
0
70
0
10
0.0000000
20
0.0000000
0
LINE
8
0
6
CONTINUOUS
10
-0.4635000
20
-0.5635000
11
0.4635000
21
-0.5635000
0
LINE
8
0
6
CONTINUOUS
10
0.4635000
20
-0.5635000
11
0.4635000
21
0.5635000
0
LINE
8
0
6
CONTINUOUS
10
0.4635000
20
0.5635000
11
-0.4635000
21
0.5635000
0
LINE
8
0
6
CONTINUOUS
10
-0.4635000
20
0.5635000
11
-0.4635000
21
-0.5635000
0
ENDBLK
0
BLOCK
2
SHAPE_SQ_561_1231_0_0_0_0
8
0
70
0
10
0.0000000
20
0.0000000
0
LINE
8
0
6
CONTINUOUS
10
-0.7135000
20
-1.5635000
11
0.7135000
21
-1.5635000
0
LINE
8
0
6
CONTINUOUS
10
0.7135000
20
-1.5635000
11
0.7135000
21
1.5635000
0
LINE
8
0
6
CONTINUOUS
10
0.7135000
20
1.5635000
11
-0.7135000
21
1.5635000
0
LINE
8
0
6
CONTINUOUS
10
-0.7135000
20
1.5635000
11
-0.7135000
21
-1.5635000
0
ENDBLK
0
BLOCK
2
break
8
0
70
0
10
0.0000000
20
0.0000000
0
INSERT
8
Top_Mask
2
SHAPE_EL_246_246_0_0_0_0
10
0.0000000
20
0.0000000
41
1.0000000
42
1.0000000
43
1.0000000
50
0.0000000
0
ENDBLK
0
BLOCK
2
P_EX59Y59D3511
8
0
70
0
10
0.0000000
20
0.0000000
0
INSERT
8
Top_Mask
2
SHAPE_OV_640_640_0_0_0_0
10
0.0000000
20
0.0000000
41
1.0000000
42
1.0000000
43
1.0000000
50
0.0000000
0
ENDBLK
0
BLOCK
2
P_EX59Y59D35168
8
0
70
0
10
0.0000000
20
0.0000000
0
INSERT
8
Top_Mask
2
SHAPE_OV_640_640_0_0_0_0
10
0.0000000
20
0.0000000
41
1.0000000
42
1.0000000
43
1.0000000
50
0.0000000
0
ENDBLK
0
BLOCK
2
wirestrap
8
0
70
0
10
0.0000000
20
0.0000000
0
INSERT
8
Top_Mask
2
SHAPE_EL_601_601_0_0_0_0
10
0.0000000
20
0.0000000
41
1.0000000
42
1.0000000
43
1.0000000
50
0.0000000
0
ENDBLK
0
BLOCK
2
0603pad66
8
0
70
0
10
0.0000000
20
0.0000000
0
INSERT
8
Top_Mask
2
SHAPE_SQ_364_364_0_0_0_0
10
0.0000000
20
0.0000000
41
1.0000000
42
1.0000000
43
1.0000000
50
0.0000000
0
ENDBLK
0
BLOCK
2
0603pad29
8
0
70
0
10
0.0000000
20
0.0000000
0
INSERT
8
Top_Mask
2
SHAPE_SQ_364_364_0_0_0_0
10
0.0000000
20
0.0000000
41
1.0000000
42
1.0000000
43
1.0000000
50
0.0000000
0
ENDBLK
0
BLOCK
2
small1
8
0
70
0
10
0.0000000
20
0.0000000
0
ENDBLK
0
BLOCK
2
065_0_8mm_round32
8
0
70
0
10
0.0000000
20
0.0000000
0
INSERT
8
Top_Mask
2
SHAPE_EL_443_443_0_0_0_0
10
0.0000000
20
0.0000000
41
1.0000000
42
1.0000000
43
1.0000000
50
0.0000000
0
ENDBLK
0
BLOCK
2
small45
8
0
70
0
10
0.0000000
20
0.0000000
0
ENDBLK
0
BLOCK
2
small08051
8
0
70
0
10
0.0000000
20
0.0000000
0
INSERT
8
Top_Mask
2
SHAPE_SQ_450_650_0_0_0_0
10
0.0000000
20
0.0000000
41
1.0000000
42
1.0000000
43
1.0000000
50
0.0000000
0
ENDBLK
0
BLOCK
2
small080545
8
0
70
0
10
0.0000000
20
0.0000000
0
INSERT
8
Top_Mask
2
SHAPE_SQ_450_650_0_0_0_0
10
0.0000000
20
0.0000000
41
1.0000000
42
1.0000000
43
1.0000000
50
0.0000000
0
ENDBLK
0
BLOCK
2
0603pad54
8
0
70
0
10
0.0000000
20
0.0000000
0
INSERT
8
Top_Mask
2
SHAPE_SQ_364_364_0_0_0_0
10
0.0000000
20
0.0000000
41
1.0000000
42
1.0000000
43
1.0000000
50
0.0000000
0
ENDBLK
0
BLOCK
2
0603pad1
8
0
70
0
10
0.0000000
20
0.0000000
0
INSERT
8
Top_Mask
2
SHAPE_SQ_364_364_0_0_0_0
10
0.0000000
20
0.0000000
41
1.0000000
42
1.0000000
43
1.0000000
50
0.0000000
0
ENDBLK
0
BLOCK
2
small18
8
0
70
0
10
0.0000000
20
0.0000000
0
ENDBLK
0
BLOCK
2
0603pad18
8
0
70
0
10
0.0000000
20
0.0000000
0
INSERT
8
Top_Mask
2
SHAPE_SQ_364_364_0_0_0_0
10
0.0000000
20
0.0000000
41
1.0000000
42
1.0000000
43
1.0000000
50
0.0000000
0
ENDBLK
0
BLOCK
2
0603pad26
8
0
70
0
10
0.0000000
20
0.0000000
0
INSERT
8
Top_Mask
2
SHAPE_SQ_364_364_0_0_0_0
10
0.0000000
20
0.0000000
41
1.0000000
42
1.0000000
43
1.0000000
50
0.0000000
0
ENDBLK
0
BLOCK
2
0603pad33
8
0
70
0
10
0.0000000
20
0.0000000
0
INSERT
8
Top_Mask
2
SHAPE_SQ_364_364_0_0_0_0
10
0.0000000
20
0.0000000
41
1.0000000
42
1.0000000
43
1.0000000
50
0.0000000
0
ENDBLK
0
BLOCK
2
0603pad28
8
0
70
0
10
0.0000000
20
0.0000000
0
INSERT
8
Top_Mask
2
SHAPE_SQ_364_364_0_0_0_0
10
0.0000000
20
0.0000000
41
1.0000000
42
1.0000000
43
1.0000000
50
0.0000000
0
ENDBLK
0
BLOCK
2
0603pad58
8
0
70
0
10
0.0000000
20
0.0000000
0
INSERT
8
Top_Mask
2
SHAPE_SQ_364_364_0_0_0_0
10
0.0000000
20
0.0000000
41
1.0000000
42
1.0000000
43
1.0000000
50
0.0000000
0
ENDBLK
0
BLOCK
2
small47
8
0
70
0
10
0.0000000
20
0.0000000
0
ENDBLK
0
BLOCK
2
0603pad51
8
0
70
0
10
0.0000000
20
0.0000000
0
INSERT
8
Top_Mask
2
SHAPE_SQ_364_364_0_0_0_0
10
0.0000000
20
0.0000000
41
1.0000000
42
1.0000000
43
1.0000000
50
0.0000000
0
ENDBLK
0
BLOCK
2
small080550
8
0
70
0
10
0.0000000
20
0.0000000
0
INSERT
8
Top_Mask
2
SHAPE_SQ_450_650_0_0_0_0
10
0.0000000
20
0.0000000
41
1.0000000
42
1.0000000
43
1.0000000
50
0.0000000
0
ENDBLK
0
BLOCK
2
065_0_8mm_round1
8
0
70
0
10
0.0000000
20
0.0000000
0
INSERT
8
Top_Mask
2
SHAPE_EL_443_443_0_0_0_0
10
0.0000000
20
0.0000000
41
1.0000000
42
1.0000000
43
1.0000000
50
0.0000000
0
ENDBLK
0
BLOCK
2
065_0_8mm_round18
8
0
70
0
10
0.0000000
20
0.0000000
0
INSERT
8
Top_Mask
2
SHAPE_EL_443_443_0_0_0_0
10
0.0000000
20
0.0000000
41
1.0000000
42
1.0000000
43
1.0000000
50
0.0000000
0
ENDBLK
0
BLOCK
2
wirestrap1
8
0
70
0
10
0.0000000
20
0.0000000
0
INSERT
8
Top_Mask
2
SHAPE_EL_601_601_0_0_0_0
10
0.0000000
20
0.0000000
41
1.0000000
42
1.0000000
43
1.0000000
50
0.0000000
0
ENDBLK
0
BLOCK
2
prototh
8
0
70
0
10
0.0000000
20
0.0000000
0
INSERT
8
Top_Mask
2
SHAPE_RR_522_640_0_0_0_0
10
0.0000000
20
0.0000000
41
1.0000000
42
1.0000000
43
1.0000000
50
0.0000000
0
ENDBLK
0
BLOCK
2
065_0_8mm_round
8
0
70
0
10
0.0000000
20
0.0000000
0
INSERT
8
Top_Mask
2
SHAPE_EL_443_443_0_0_0_0
10
0.0000000
20
0.0000000
41
1.0000000
42
1.0000000
43
1.0000000
50
0.0000000
0
ENDBLK
0
BLOCK
2
small25
8
0
70
0
10
0.0000000
20
0.0000000
0
ENDBLK
0
BLOCK
2
small50
8
0
70
0
10
0.0000000
20
0.0000000
0
ENDBLK
0
BLOCK
2
P_EX59Y59D35118
8
0
70
0
10
0.0000000
20
0.0000000
0
INSERT
8
Top_Mask
2
SHAPE_OV_640_640_0_0_0_0
10
0.0000000
20
0.0000000
41
1.0000000
42
1.0000000
43
1.0000000
50
0.0000000
0
ENDBLK
0
BLOCK
2
small57
8
0
70
0
10
0.0000000
20
0.0000000
0
ENDBLK
0
BLOCK
2
small28
8
0
70
0
10
0.0000000
20
0.0000000
0
ENDBLK
0
BLOCK
2
small39
8
0
70
0
10
0.0000000
20
0.0000000
0
ENDBLK
0
BLOCK
2
P_EX59Y59D35116
8
0
70
0
10
0.0000000
20
0.0000000
0
INSERT
8
Top_Mask
2
SHAPE_OV_640_640_0_0_0_0
10
0.0000000
20
0.0000000
41
1.0000000
42
1.0000000
43
1.0000000
50
0.0000000
0
ENDBLK
0
BLOCK
2
P_EX59Y59D35150
8
0
70
0
10
0.0000000
20
0.0000000
0
INSERT
8
Top_Mask
2
SHAPE_OV_640_640_0_0_0_0
10
0.0000000
20
0.0000000
41
1.0000000
42
1.0000000
43
1.0000000
50
0.0000000
0
ENDBLK
0
BLOCK
2
0603pad23
8
0
70
0
10
0.0000000
20
0.0000000
0
INSERT
8
Top_Mask
2
SHAPE_SQ_364_364_0_0_0_0
10
0.0000000
20
0.0000000
41
1.0000000
42
1.0000000
43
1.0000000
50
0.0000000
0
ENDBLK
0
BLOCK
2
small080524
8
0
70
0
10
0.0000000
20
0.0000000
0
INSERT
8
Top_Mask
2
SHAPE_SQ_450_650_0_0_0_0
10
0.0000000
20
0.0000000
41
1.0000000
42
1.0000000
43
1.0000000
50
0.0000000
0
ENDBLK
0
BLOCK
2
065_0_8mm_round26
8
0
70
0
10
0.0000000
20
0.0000000
0
INSERT
8
Top_Mask
2
SHAPE_EL_443_443_0_0_0_0
10
0.0000000
20
0.0000000
41
1.0000000
42
1.0000000
43
1.0000000
50
0.0000000
0
ENDBLK
0
BLOCK
2
small29
8
0
70
0
10
0.0000000
20
0.0000000
0
ENDBLK
0
BLOCK
2
065_0_8mm_round30
8
0
70
0
10
0.0000000
20
0.0000000
0
INSERT
8
Top_Mask
2
SHAPE_EL_443_443_0_0_0_0
10
0.0000000
20
0.0000000
41
1.0000000
42
1.0000000
43
1.0000000
50
0.0000000
0
ENDBLK
0
BLOCK
2
065_0_8mm_round29
8
0
70
0
10
0.0000000
20
0.0000000
0
INSERT
8
Top_Mask
2
SHAPE_EL_443_443_0_0_0_0
10
0.0000000
20
0.0000000
41
1.0000000
42
1.0000000
43
1.0000000
50
0.0000000
0
ENDBLK
0
BLOCK
2
0603pad31
8
0
70
0
10
0.0000000
20
0.0000000
0
INSERT
8
Top_Mask
2
SHAPE_SQ_364_364_0_0_0_0
10
0.0000000
20
0.0000000
41
1.0000000
42
1.0000000
43
1.0000000
50
0.0000000
0
ENDBLK
0
BLOCK
2
0603pad21
8
0
70
0
10
0.0000000
20
0.0000000
0
INSERT
8
Top_Mask
2
SHAPE_SQ_364_364_0_0_0_0
10
0.0000000
20
0.0000000
41
1.0000000
42
1.0000000
43
1.0000000
50
0.0000000
0
ENDBLK
0
BLOCK
2
small35
8
0
70
0
10
0.0000000
20
0.0000000
0
ENDBLK
0
BLOCK
2
small34
8
0
70
0
10
0.0000000
20
0.0000000
0
ENDBLK
0
BLOCK
2
small17
8
0
70
0
10
0.0000000
20
0.0000000
0
ENDBLK
0
BLOCK
2
small16
8
0
70
0
10
0.0000000
20
0.0000000
0
ENDBLK
0
BLOCK
2
lgapin17
8
0
70
0
10
0.0000000
20
0.0000000
0
INSERT
8
Top_Mask
2
SHAPE_SQ_158_158_0_0_0_0
10
0.0000000
20
0.0000000
41
1.0000000
42
1.0000000
43
1.0000000
50
0.0000000
0
ENDBLK
0
BLOCK
2
lgapin18
8
0
70
0
10
0.0000000
20
0.0000000
0
INSERT
8
Top_Mask
2
SHAPE_SQ_158_158_0_0_0_0
10
0.0000000
20
0.0000000
41
1.0000000
42
1.0000000
43
1.0000000
50
0.0000000
0
ENDBLK
0
BLOCK
2
lgapin16
8
0
70
0
10
0.0000000
20
0.0000000
0
INSERT
8
Top_Mask
2
SHAPE_SQ_158_158_0_0_0_0
10
0.0000000
20
0.0000000
41
1.0000000
42
1.0000000
43
1.0000000
50
0.0000000
0
ENDBLK
0
BLOCK
2
lgapin1
8
0
70
0
10
0.0000000
20
0.0000000
0
INSERT
8
Top_Mask
2
SHAPE_SQ_158_158_0_0_0_0
10
0.0000000
20
0.0000000
41
1.0000000
42
1.0000000
43
1.0000000
50
0.0000000
0
ENDBLK
0
BLOCK
2
lgapin53
8
0
70
0
10
0.0000000
20
0.0000000
0
INSERT
8
Top_Mask
2
SHAPE_SQ_158_158_0_0_0_0
10
0.0000000
20
0.0000000
41
1.0000000
42
1.0000000
43
1.0000000
50
0.0000000
0
ENDBLK
0
BLOCK
2
lgapin
8
0
70
0
10
0.0000000
20
0.0000000
0
INSERT
8
Top_Mask
2
SHAPE_SQ_158_158_0_0_0_0
10
0.0000000
20
0.0000000
41
1.0000000
42
1.0000000
43
1.0000000
50
0.0000000
0
ENDBLK
0
BLOCK
2
small26
8
0
70
0
10
0.0000000
20
0.0000000
0
ENDBLK
0
BLOCK
2
small38
8
0
70
0
10
0.0000000
20
0.0000000
0
ENDBLK
0
BLOCK
2
065_0_8mm_round34
8
0
70
0
10
0.0000000
20
0.0000000
0
INSERT
8
Top_Mask
2
SHAPE_EL_443_443_0_0_0_0
10
0.0000000
20
0.0000000
41
1.0000000
42
1.0000000
43
1.0000000
50
0.0000000
0
ENDBLK
0
BLOCK
2
small20
8
0
70
0
10
0.0000000
20
0.0000000
0
ENDBLK
0
BLOCK
2
small55
8
0
70
0
10
0.0000000
20
0.0000000
0
ENDBLK
0
BLOCK
2
0603pad55
8
0
70
0
10
0.0000000
20
0.0000000
0
INSERT
8
Top_Mask
2
SHAPE_SQ_364_364_0_0_0_0
10
0.0000000
20
0.0000000
41
1.0000000
42
1.0000000
43
1.0000000
50
0.0000000
0
ENDBLK
0
BLOCK
2
0603pad37
8
0
70
0
10
0.0000000
20
0.0000000
0
INSERT
8
Top_Mask
2
SHAPE_SQ_364_364_0_0_0_0
10
0.0000000
20
0.0000000
41
1.0000000
42
1.0000000
43
1.0000000
50
0.0000000
0
ENDBLK
0
BLOCK
2
small59
8
0
70
0
10
0.0000000
20
0.0000000
0
ENDBLK
0
BLOCK
2
small22
8
0
70
0
10
0.0000000
20
0.0000000
0
ENDBLK
0
BLOCK
2
small42
8
0
70
0
10
0.0000000
20
0.0000000
0
ENDBLK
0
BLOCK
2
small41
8
0
70
0
10
0.0000000
20
0.0000000
0
ENDBLK
0
BLOCK
2
small62
8
0
70
0
10
0.0000000
20
0.0000000
0
ENDBLK
0
BLOCK
2
small14
8
0
70
0
10
0.0000000
20
0.0000000
0
ENDBLK
0
BLOCK
2
small8
8
0
70
0
10
0.0000000
20
0.0000000
0
ENDBLK
0
BLOCK
2
small7
8
0
70
0
10
0.0000000
20
0.0000000
0
ENDBLK
0
BLOCK
2
065_0_8mm_round13
8
0
70
0
10
0.0000000
20
0.0000000
0
INSERT
8
Top_Mask
2
SHAPE_EL_443_443_0_0_0_0
10
0.0000000
20
0.0000000
41
1.0000000
42
1.0000000
43
1.0000000
50
0.0000000
0
ENDBLK
0
BLOCK
2
small13
8
0
70
0
10
0.0000000
20
0.0000000
0
ENDBLK
0
BLOCK
2
0603pad15
8
0
70
0
10
0.0000000
20
0.0000000
0
INSERT
8
Top_Mask
2
SHAPE_SQ_364_364_0_0_0_0
10
0.0000000
20
0.0000000
41
1.0000000
42
1.0000000
43
1.0000000
50
0.0000000
0
ENDBLK
0
BLOCK
2
0603pad56
8
0
70
0
10
0.0000000
20
0.0000000
0
INSERT
8
Top_Mask
2
SHAPE_SQ_364_364_0_0_0_0
10
0.0000000
20
0.0000000
41
1.0000000
42
1.0000000
43
1.0000000
50
0.0000000
0
ENDBLK
0
BLOCK
2
0603pad45
8
0
70
0
10
0.0000000
20
0.0000000
0
INSERT
8
Top_Mask
2
SHAPE_SQ_364_364_0_0_0_0
10
0.0000000
20
0.0000000
41
1.0000000
42
1.0000000
43
1.0000000
50
0.0000000
0
ENDBLK
0
BLOCK
2
small60
8
0
70
0
10
0.0000000
20
0.0000000
0
ENDBLK
0
BLOCK
2
065_0_8mm_round12
8
0
70
0
10
0.0000000
20
0.0000000
0
INSERT
8
Top_Mask
2
SHAPE_EL_443_443_0_0_0_0
10
0.0000000
20
0.0000000
41
1.0000000
42
1.0000000
43
1.0000000
50
0.0000000
0
ENDBLK
0
BLOCK
2
065_0_8mm_round3
8
0
70
0
10
0.0000000
20
0.0000000
0
INSERT
8
Top_Mask
2
SHAPE_EL_443_443_0_0_0_0
10
0.0000000
20
0.0000000
41
1.0000000
42
1.0000000
43
1.0000000
50
0.0000000
0
ENDBLK
0
BLOCK
2
0603pad17
8
0
70
0
10
0.0000000
20
0.0000000
0
INSERT
8
Top_Mask
2
SHAPE_SQ_364_364_0_0_0_0
10
0.0000000
20
0.0000000
41
1.0000000
42
1.0000000
43
1.0000000
50
0.0000000
0
ENDBLK
0
BLOCK
2
P_EX59Y59D35145
8
0
70
0
10
0.0000000
20
0.0000000
0
INSERT
8
Top_Mask
2
SHAPE_OV_640_640_0_0_0_0
10
0.0000000
20
0.0000000
41
1.0000000
42
1.0000000
43
1.0000000
50
0.0000000
0
ENDBLK
0
BLOCK
2
break_F
8
0
70
0
10
0.0000000
20
0.0000000
0
INSERT
8
Top_Mask
2
SHAPE_EL_246_246_0_0_0_0
10
0.0000000
20
0.0000000
41
1.0000000
42
1.0000000
43
1.0000000
50
0.0000000
0
ENDBLK
0
BLOCK
2
fiduc
8
0
70
0
10
0.0000000
20
0.0000000
0
INSERT
8
Top_Mask
2
SHAPE_EL_800_800_0_0_0_0
10
0.0000000
20
0.0000000
41
1.0000000
42
1.0000000
43
1.0000000
50
0.0000000
0
ENDBLK
0
BLOCK
2
P_SX59Y59D35145
8
0
70
0
10
0.0000000
20
0.0000000
0
INSERT
8
Top_Mask
2
SHAPE_SQ_640_640_0_0_0_0
10
0.0000000
20
0.0000000
41
1.0000000
42
1.0000000
43
1.0000000
50
0.0000000
0
ENDBLK
0
BLOCK
2
P_EX59Y59D35148
8
0
70
0
10
0.0000000
20
0.0000000
0
INSERT
8
Top_Mask
2
SHAPE_OV_640_640_0_0_0_0
10
0.0000000
20
0.0000000
41
1.0000000
42
1.0000000
43
1.0000000
50
0.0000000
0
ENDBLK
0
BLOCK
2
0603pad25
8
0
70
0
10
0.0000000
20
0.0000000
0
INSERT
8
Top_Mask
2
SHAPE_SQ_364_364_0_0_0_0
10
0.0000000
20
0.0000000
41
1.0000000
42
1.0000000
43
1.0000000
50
0.0000000
0
ENDBLK
0
BLOCK
2
small46
8
0
70
0
10
0.0000000
20
0.0000000
0
ENDBLK
0
BLOCK
2
small48
8
0
70
0
10
0.0000000
20
0.0000000
0
ENDBLK
0
BLOCK
2
065_0_8mm_round25
8
0
70
0
10
0.0000000
20
0.0000000
0
INSERT
8
Top_Mask
2
SHAPE_EL_443_443_0_0_0_0
10
0.0000000
20
0.0000000
41
1.0000000
42
1.0000000
43
1.0000000
50
0.0000000
0
ENDBLK
0
BLOCK
2
0603pad50
8
0
70
0
10
0.0000000
20
0.0000000
0
INSERT
8
Top_Mask
2
SHAPE_SQ_364_364_0_0_0_0
10
0.0000000
20
0.0000000
41
1.0000000
42
1.0000000
43
1.0000000
50
0.0000000
0
ENDBLK
0
BLOCK
2
065_0_8mm_round50
8
0
70
0
10
0.0000000
20
0.0000000
0
INSERT
8
Top_Mask
2
SHAPE_EL_443_443_0_0_0_0
10
0.0000000
20
0.0000000
41
1.0000000
42
1.0000000
43
1.0000000
50
0.0000000
0
ENDBLK
0
BLOCK
2
protopad
8
0
70
0
10
0.0000000
20
0.0000000
0
INSERT
8
Top_Mask
2
SHAPE_SQ_345_2805_0_0_0_0
10
0.0000000
20
0.0000000
41
1.0000000
42
1.0000000
43
1.0000000
50
0.0000000
0
ENDBLK
0
BLOCK
2
0603pad67
8
0
70
0
10
0.0000000
20
0.0000000
0
INSERT
8
Top_Mask
2
SHAPE_SQ_364_364_0_0_0_0
10
0.0000000
20
0.0000000
41
1.0000000
42
1.0000000
43
1.0000000
50
0.0000000
0
ENDBLK
0
BLOCK
2
0603pad39
8
0
70
0
10
0.0000000
20
0.0000000
0
INSERT
8
Top_Mask
2
SHAPE_SQ_364_364_0_0_0_0
10
0.0000000
20
0.0000000
41
1.0000000
42
1.0000000
43
1.0000000
50
0.0000000
0
ENDBLK
0
BLOCK
2
065_0_8mm_round20
8
0
70
0
10
0.0000000
20
0.0000000
0
INSERT
8
Top_Mask
2
SHAPE_EL_443_443_0_0_0_0
10
0.0000000
20
0.0000000
41
1.0000000
42
1.0000000
43
1.0000000
50
0.0000000
0
ENDBLK
0
BLOCK
2
065_0_8mm_round28
8
0
70
0
10
0.0000000
20
0.0000000
0
INSERT
8
Top_Mask
2
SHAPE_EL_443_443_0_0_0_0
10
0.0000000
20
0.0000000
41
1.0000000
42
1.0000000
43
1.0000000
50
0.0000000
0
ENDBLK
0
BLOCK
2
065_0_8mm_round27
8
0
70
0
10
0.0000000
20
0.0000000
0
INSERT
8
Top_Mask
2
SHAPE_EL_443_443_0_0_0_0
10
0.0000000
20
0.0000000
41
1.0000000
42
1.0000000
43
1.0000000
50
0.0000000
0
ENDBLK
0
BLOCK
2
065_0_8mm_round40
8
0
70
0
10
0.0000000
20
0.0000000
0
INSERT
8
Top_Mask
2
SHAPE_EL_443_443_0_0_0_0
10
0.0000000
20
0.0000000
41
1.0000000
42
1.0000000
43
1.0000000
50
0.0000000
0
ENDBLK
0
BLOCK
2
065_0_8mm_round11
8
0
70
0
10
0.0000000
20
0.0000000
0
INSERT
8
Top_Mask
2
SHAPE_EL_443_443_0_0_0_0
10
0.0000000
20
0.0000000
41
1.0000000
42
1.0000000
43
1.0000000
50
0.0000000
0
ENDBLK
0
BLOCK
2
065_0_8mm_round7
8
0
70
0
10
0.0000000
20
0.0000000
0
INSERT
8
Top_Mask
2
SHAPE_EL_443_443_0_0_0_0
10
0.0000000
20
0.0000000
41
1.0000000
42
1.0000000
43
1.0000000
50
0.0000000
0
ENDBLK
0
BLOCK
2
0603pad16
8
0
70
0
10
0.0000000
20
0.0000000
0
INSERT
8
Top_Mask
2
SHAPE_SQ_364_364_0_0_0_0
10
0.0000000
20
0.0000000
41
1.0000000
42
1.0000000
43
1.0000000
50
0.0000000
0
ENDBLK
0
BLOCK
2
0603pad42
8
0
70
0
10
0.0000000
20
0.0000000
0
INSERT
8
Top_Mask
2
SHAPE_SQ_364_364_0_0_0_0
10
0.0000000
20
0.0000000
41
1.0000000
42
1.0000000
43
1.0000000
50
0.0000000
0
ENDBLK
0
BLOCK
2
0603pad43
8
0
70
0
10
0.0000000
20
0.0000000
0
INSERT
8
Top_Mask
2
SHAPE_SQ_364_364_0_0_0_0
10
0.0000000
20
0.0000000
41
1.0000000
42
1.0000000
43
1.0000000
50
0.0000000
0
ENDBLK
0
BLOCK
2
0603pad47
8
0
70
0
10
0.0000000
20
0.0000000
0
INSERT
8
Top_Mask
2
SHAPE_SQ_364_364_0_0_0_0
10
0.0000000
20
0.0000000
41
1.0000000
42
1.0000000
43
1.0000000
50
0.0000000
0
ENDBLK
0
BLOCK
2
P_SX32Y32D0T55
8
0
70
0
10
0.0000000
20
0.0000000
0
INSERT
8
Top_Mask
2
SHAPE_SQ_370_370_0_0_0_0
10
0.0000000
20
0.0000000
41
1.0000000
42
1.0000000
43
1.0000000
50
0.0000000
0
ENDBLK
0
BLOCK
2
P_SX32Y32D0T45
8
0
70
0
10
0.0000000
20
0.0000000
0
INSERT
8
Top_Mask
2
SHAPE_SQ_370_370_0_0_0_0
10
0.0000000
20
0.0000000
41
1.0000000
42
1.0000000
43
1.0000000
50
0.0000000
0
ENDBLK
0
BLOCK
2
P_SX32Y32D0T56
8
0
70
0
10
0.0000000
20
0.0000000
0
INSERT
8
Top_Mask
2
SHAPE_SQ_370_370_0_0_0_0
10
0.0000000
20
0.0000000
41
1.0000000
42
1.0000000
43
1.0000000
50
0.0000000
0
ENDBLK
0
BLOCK
2
065_0_8mm_round__1_63
8
0
70
0
10
0.0000000
20
0.0000000
0
INSERT
8
Top_Mask
2
SHAPE_EL_640_640_0_0_0_0
10
0.0000000
20
0.0000000
41
1.0000000
42
1.0000000
43
1.0000000
50
0.0000000
0
ENDBLK
0
BLOCK
2
065_0_8mm_round__1_50
8
0
70
0
10
0.0000000
20
0.0000000
0
INSERT
8
Top_Mask
2
SHAPE_EL_640_640_0_0_0_0
10
0.0000000
20
0.0000000
41
1.0000000
42
1.0000000
43
1.0000000
50
0.0000000
0
ENDBLK
0
BLOCK
2
0603pad48
8
0
70
0
10
0.0000000
20
0.0000000
0
INSERT
8
Top_Mask
2
SHAPE_SQ_364_364_0_0_0_0
10
0.0000000
20
0.0000000
41
1.0000000
42
1.0000000
43
1.0000000
50
0.0000000
0
ENDBLK
0
BLOCK
2
sot235pad18
8
0
70
0
10
0.0000000
20
0.0000000
0
INSERT
8
Top_Mask
2
SHAPE_SQ_330_330_0_0_0_0
10
0.0000000
20
0.0000000
41
1.0000000
42
1.0000000
43
1.0000000
50
0.0000000
0
ENDBLK
0
BLOCK
2
sot235pad32
8
0
70
0
10
0.0000000
20
0.0000000
0
INSERT
8
Top_Mask
2
SHAPE_SQ_330_330_0_0_0_0
10
0.0000000
20
0.0000000
41
1.0000000
42
1.0000000
43
1.0000000
50
0.0000000
0
ENDBLK
0
BLOCK
2
sot235pad1
8
0
70
0
10
0.0000000
20
0.0000000
0
INSERT
8
Top_Mask
2
SHAPE_SQ_330_330_0_0_0_0
10
0.0000000
20
0.0000000
41
1.0000000
42
1.0000000
43
1.0000000
50
0.0000000
0
ENDBLK
0
BLOCK
2
sot235pad52
8
0
70
0
10
0.0000000
20
0.0000000
0
INSERT
8
Top_Mask
2
SHAPE_SQ_330_330_0_0_0_0
10
0.0000000
20
0.0000000
41
1.0000000
42
1.0000000
43
1.0000000
50
0.0000000
0
ENDBLK
0
BLOCK
2
sot235pad54
8
0
70
0
10
0.0000000
20
0.0000000
0
INSERT
8
Top_Mask
2
SHAPE_SQ_330_330_0_0_0_0
10
0.0000000
20
0.0000000
41
1.0000000
42
1.0000000
43
1.0000000
50
0.0000000
0
ENDBLK
0
BLOCK
2
P_SX32Y32D0T48
8
0
70
0
10
0.0000000
20
0.0000000
0
INSERT
8
Top_Mask
2
SHAPE_SQ_370_370_0_0_0_0
10
0.0000000
20
0.0000000
41
1.0000000
42
1.0000000
43
1.0000000
50
0.0000000
0
ENDBLK
0
BLOCK
2
P_SX32Y32D0T47
8
0
70
0
10
0.0000000
20
0.0000000
0
INSERT
8
Top_Mask
2
SHAPE_SQ_370_370_0_0_0_0
10
0.0000000
20
0.0000000
41
1.0000000
42
1.0000000
43
1.0000000
50
0.0000000
0
ENDBLK
0
BLOCK
2
P_SX32Y32D0T46
8
0
70
0
10
0.0000000
20
0.0000000
0
INSERT
8
Top_Mask
2
SHAPE_SQ_370_370_0_0_0_0
10
0.0000000
20
0.0000000
41
1.0000000
42
1.0000000
43
1.0000000
50
0.0000000
0
ENDBLK
0
BLOCK
2
small080525
8
0
70
0
10
0.0000000
20
0.0000000
0
INSERT
8
Top_Mask
2
SHAPE_SQ_450_650_0_0_0_0
10
0.0000000
20
0.0000000
41
1.0000000
42
1.0000000
43
1.0000000
50
0.0000000
0
ENDBLK
0
BLOCK
2
small1206__1_49
8
0
70
0
10
0.0000000
20
0.0000000
0
INSERT
8
Top_Mask
2
SHAPE_SQ_384_837_0_0_0_0
10
0.0000000
20
0.0000000
41
1.0000000
42
1.0000000
43
1.0000000
50
0.0000000
0
ENDBLK
0
BLOCK
2
small1206__1_45
8
0
70
0
10
0.0000000
20
0.0000000
0
INSERT
8
Top_Mask
2
SHAPE_SQ_384_837_0_0_0_0
10
0.0000000
20
0.0000000
41
1.0000000
42
1.0000000
43
1.0000000
50
0.0000000
0
ENDBLK
0
BLOCK
2
P_EX59Y59D35117
8
0
70
0
10
0.0000000
20
0.0000000
0
INSERT
8
Top_Mask
2
SHAPE_OV_640_640_0_0_0_0
10
0.0000000
20
0.0000000
41
1.0000000
42
1.0000000
43
1.0000000
50
0.0000000
0
ENDBLK
0
BLOCK
2
065_0_8mm_round38
8
0
70
0
10
0.0000000
20
0.0000000
0
INSERT
8
Top_Mask
2
SHAPE_EL_443_443_0_0_0_0
10
0.0000000
20
0.0000000
41
1.0000000
42
1.0000000
43
1.0000000
50
0.0000000
0
ENDBLK
0
BLOCK
2
065_0_8mm_round39
8
0
70
0
10
0.0000000
20
0.0000000
0
INSERT
8
Top_Mask
2
SHAPE_EL_443_443_0_0_0_0
10
0.0000000
20
0.0000000
41
1.0000000
42
1.0000000
43
1.0000000
50
0.0000000
0
ENDBLK
0
BLOCK
2
0603pad35
8
0
70
0
10
0.0000000
20
0.0000000
0
INSERT
8
Top_Mask
2
SHAPE_SQ_364_364_0_0_0_0
10
0.0000000
20
0.0000000
41
1.0000000
42
1.0000000
43
1.0000000
50
0.0000000
0
ENDBLK
0
BLOCK
2
sot235pad
8
0
70
0
10
0.0000000
20
0.0000000
0
INSERT
8
Top_Mask
2
SHAPE_SQ_330_330_0_0_0_0
10
0.0000000
20
0.0000000
41
1.0000000
42
1.0000000
43
1.0000000
50
0.0000000
0
ENDBLK
0
BLOCK
2
sot235pad50
8
0
70
0
10
0.0000000
20
0.0000000
0
INSERT
8
Top_Mask
2
SHAPE_SQ_330_330_0_0_0_0
10
0.0000000
20
0.0000000
41
1.0000000
42
1.0000000
43
1.0000000
50
0.0000000
0
ENDBLK
0
BLOCK
2
small11
8
0
70
0
10
0.0000000
20
0.0000000
0
ENDBLK
0
BLOCK
2
065_0_8mm_round8
8
0
70
0
10
0.0000000
20
0.0000000
0
INSERT
8
Top_Mask
2
SHAPE_EL_443_443_0_0_0_0
10
0.0000000
20
0.0000000
41
1.0000000
42
1.0000000
43
1.0000000
50
0.0000000
0
ENDBLK
0
BLOCK
2
small08052
8
0
70
0
10
0.0000000
20
0.0000000
0
INSERT
8
Top_Mask
2
SHAPE_SQ_450_650_0_0_0_0
10
0.0000000
20
0.0000000
41
1.0000000
42
1.0000000
43
1.0000000
50
0.0000000
0
ENDBLK
0
BLOCK
2
0603pad22
8
0
70
0
10
0.0000000
20
0.0000000
0
INSERT
8
Top_Mask
2
SHAPE_SQ_364_364_0_0_0_0
10
0.0000000
20
0.0000000
41
1.0000000
42
1.0000000
43
1.0000000
50
0.0000000
0
ENDBLK
0
BLOCK
2
small1206__1_52
8
0
70
0
10
0.0000000
20
0.0000000
0
INSERT
8
Top_Mask
2
SHAPE_SQ_384_837_0_0_0_0
10
0.0000000
20
0.0000000
41
1.0000000
42
1.0000000
43
1.0000000
50
0.0000000
0
ENDBLK
0
BLOCK
2
P_SX32Y32D0T25
8
0
70
0
10
0.0000000
20
0.0000000
0
INSERT
8
Top_Mask
2
SHAPE_SQ_370_370_0_0_0_0
10
0.0000000
20
0.0000000
41
1.0000000
42
1.0000000
43
1.0000000
50
0.0000000
0
ENDBLK
0
BLOCK
2
P_SX32Y32D0T
8
0
70
0
10
0.0000000
20
0.0000000
0
INSERT
8
Top_Mask
2
SHAPE_SQ_370_370_0_0_0_0
10
0.0000000
20
0.0000000
41
1.0000000
42
1.0000000
43
1.0000000
50
0.0000000
0
ENDBLK
0
BLOCK
2
P_SX32Y32D0T52
8
0
70
0
10
0.0000000
20
0.0000000
0
INSERT
8
Top_Mask
2
SHAPE_SQ_370_370_0_0_0_0
10
0.0000000
20
0.0000000
41
1.0000000
42
1.0000000
43
1.0000000
50
0.0000000
0
ENDBLK
0
BLOCK
2
swpad__1_45_F
8
0
70
0
10
0.0000000
20
0.0000000
0
INSERT
8
Top_Mask
2
SHAPE_SQ_950_640_0_0_0_0
10
0.0000000
20
0.0000000
41
1.0000000
42
1.0000000
43
1.0000000
50
0.0000000
0
ENDBLK
0
BLOCK
2
swpad__1_46_F
8
0
70
0
10
0.0000000
20
0.0000000
0
INSERT
8
Top_Mask
2
SHAPE_SQ_950_640_0_0_0_0
10
0.0000000
20
0.0000000
41
1.0000000
42
1.0000000
43
1.0000000
50
0.0000000
0
ENDBLK
0
BLOCK
2
sot235pad45
8
0
70
0
10
0.0000000
20
0.0000000
0
INSERT
8
Top_Mask
2
SHAPE_SQ_330_330_0_0_0_0
10
0.0000000
20
0.0000000
41
1.0000000
42
1.0000000
43
1.0000000
50
0.0000000
0
ENDBLK
0
BLOCK
2
sot235pad49
8
0
70
0
10
0.0000000
20
0.0000000
0
INSERT
8
Top_Mask
2
SHAPE_SQ_330_330_0_0_0_0
10
0.0000000
20
0.0000000
41
1.0000000
42
1.0000000
43
1.0000000
50
0.0000000
0
ENDBLK
0
BLOCK
2
sot235pad51
8
0
70
0
10
0.0000000
20
0.0000000
0
INSERT
8
Top_Mask
2
SHAPE_SQ_330_330_0_0_0_0
10
0.0000000
20
0.0000000
41
1.0000000
42
1.0000000
43
1.0000000
50
0.0000000
0
ENDBLK
0
BLOCK
2
sot235pad48
8
0
70
0
10
0.0000000
20
0.0000000
0
INSERT
8
Top_Mask
2
SHAPE_SQ_330_330_0_0_0_0
10
0.0000000
20
0.0000000
41
1.0000000
42
1.0000000
43
1.0000000
50
0.0000000
0
ENDBLK
0
BLOCK
2
omend1
8
0
70
0
10
0.0000000
20
0.0000000
0
INSERT
8
Top_Mask
2
SHAPE_SQ_719_640_0_0_0_0
10
0.0000000
20
0.0000000
41
1.0000000
42
1.0000000
43
1.0000000
50
0.0000000
0
ENDBLK
0
BLOCK
2
ompin75
8
0
70
0
10
0.0000000
20
0.0000000
0
INSERT
8
Top_Mask
2
SHAPE_SQ_483_148_0_0_0_0
10
0.0000000
20
0.0000000
41
1.0000000
42
1.0000000
43
1.0000000
50
0.0000000
0
ENDBLK
0
BLOCK
2
ompin1
8
0
70
0
10
0.0000000
20
0.0000000
0
INSERT
8
Top_Mask
2
SHAPE_SQ_483_148_0_0_0_0
10
0.0000000
20
0.0000000
41
1.0000000
42
1.0000000
43
1.0000000
50
0.0000000
0
ENDBLK
0
BLOCK
2
ompin76
8
0
70
0
10
0.0000000
20
0.0000000
0
INSERT
8
Top_Mask
2
SHAPE_SQ_483_148_0_0_0_0
10
0.0000000
20
0.0000000
41
1.0000000
42
1.0000000
43
1.0000000
50
0.0000000
0
ENDBLK
0
BLOCK
2
ompin23
8
0
70
0
10
0.0000000
20
0.0000000
0
INSERT
8
Top_Mask
2
SHAPE_SQ_483_148_0_0_0_0
10
0.0000000
20
0.0000000
41
1.0000000
42
1.0000000
43
1.0000000
50
0.0000000
0
ENDBLK
0
BLOCK
2
ompin18
8
0
70
0
10
0.0000000
20
0.0000000
0
INSERT
8
Top_Mask
2
SHAPE_SQ_483_148_0_0_0_0
10
0.0000000
20
0.0000000
41
1.0000000
42
1.0000000
43
1.0000000
50
0.0000000
0
ENDBLK
0
BLOCK
2
ompin24
8
0
70
0
10
0.0000000
20
0.0000000
0
INSERT
8
Top_Mask
2
SHAPE_SQ_483_148_0_0_0_0
10
0.0000000
20
0.0000000
41
1.0000000
42
1.0000000
43
1.0000000
50
0.0000000
0
ENDBLK
0
BLOCK
2
ompin25
8
0
70
0
10
0.0000000
20
0.0000000
0
INSERT
8
Top_Mask
2
SHAPE_SQ_483_148_0_0_0_0
10
0.0000000
20
0.0000000
41
1.0000000
42
1.0000000
43
1.0000000
50
0.0000000
0
ENDBLK
0
BLOCK
2
ompin77
8
0
70
0
10
0.0000000
20
0.0000000
0
INSERT
8
Top_Mask
2
SHAPE_SQ_483_148_0_0_0_0
10
0.0000000
20
0.0000000
41
1.0000000
42
1.0000000
43
1.0000000
50
0.0000000
0
ENDBLK
0
BLOCK
2
ompin27
8
0
70
0
10
0.0000000
20
0.0000000
0
INSERT
8
Top_Mask
2
SHAPE_SQ_483_148_0_0_0_0
10
0.0000000
20
0.0000000
41
1.0000000
42
1.0000000
43
1.0000000
50
0.0000000
0
ENDBLK
0
BLOCK
2
ompin26
8
0
70
0
10
0.0000000
20
0.0000000
0
INSERT
8
Top_Mask
2
SHAPE_SQ_483_148_0_0_0_0
10
0.0000000
20
0.0000000
41
1.0000000
42
1.0000000
43
1.0000000
50
0.0000000
0
ENDBLK
0
BLOCK
2
ompin21
8
0
70
0
10
0.0000000
20
0.0000000
0
INSERT
8
Top_Mask
2
SHAPE_SQ_483_148_0_0_0_0
10
0.0000000
20
0.0000000
41
1.0000000
42
1.0000000
43
1.0000000
50
0.0000000
0
ENDBLK
0
BLOCK
2
ompin78
8
0
70
0
10
0.0000000
20
0.0000000
0
INSERT
8
Top_Mask
2
SHAPE_SQ_483_148_0_0_0_0
10
0.0000000
20
0.0000000
41
1.0000000
42
1.0000000
43
1.0000000
50
0.0000000
0
ENDBLK
0
BLOCK
2
ompin32
8
0
70
0
10
0.0000000
20
0.0000000
0
INSERT
8
Top_Mask
2
SHAPE_SQ_483_148_0_0_0_0
10
0.0000000
20
0.0000000
41
1.0000000
42
1.0000000
43
1.0000000
50
0.0000000
0
ENDBLK
0
BLOCK
2
ompin31
8
0
70
0
10
0.0000000
20
0.0000000
0
INSERT
8
Top_Mask
2
SHAPE_SQ_483_148_0_0_0_0
10
0.0000000
20
0.0000000
41
1.0000000
42
1.0000000
43
1.0000000
50
0.0000000
0
ENDBLK
0
BLOCK
2
ompin30
8
0
70
0
10
0.0000000
20
0.0000000
0
INSERT
8
Top_Mask
2
SHAPE_SQ_483_148_0_0_0_0
10
0.0000000
20
0.0000000
41
1.0000000
42
1.0000000
43
1.0000000
50
0.0000000
0
ENDBLK
0
BLOCK
2
ompin29
8
0
70
0
10
0.0000000
20
0.0000000
0
INSERT
8
Top_Mask
2
SHAPE_SQ_483_148_0_0_0_0
10
0.0000000
20
0.0000000
41
1.0000000
42
1.0000000
43
1.0000000
50
0.0000000
0
ENDBLK
0
BLOCK
2
ompin28
8
0
70
0
10
0.0000000
20
0.0000000
0
INSERT
8
Top_Mask
2
SHAPE_SQ_483_148_0_0_0_0
10
0.0000000
20
0.0000000
41
1.0000000
42
1.0000000
43
1.0000000
50
0.0000000
0
ENDBLK
0
BLOCK
2
ompin20
8
0
70
0
10
0.0000000
20
0.0000000
0
INSERT
8
Top_Mask
2
SHAPE_SQ_483_148_0_0_0_0
10
0.0000000
20
0.0000000
41
1.0000000
42
1.0000000
43
1.0000000
50
0.0000000
0
ENDBLK
0
BLOCK
2
ompin79
8
0
70
0
10
0.0000000
20
0.0000000
0
INSERT
8
Top_Mask
2
SHAPE_SQ_483_148_0_0_0_0
10
0.0000000
20
0.0000000
41
1.0000000
42
1.0000000
43
1.0000000
50
0.0000000
0
ENDBLK
0
BLOCK
2
hang
8
0
70
0
10
0.0000000
20
0.0000000
0
INSERT
8
Top_Mask
2
SHAPE_EL_2018_2018_0_0_0_0
10
0.0000000
20
0.0000000
41
1.0000000
42
1.0000000
43
1.0000000
50
0.0000000
0
ENDBLK
0
BLOCK
2
0603pad46
8
0
70
0
10
0.0000000
20
0.0000000
0
INSERT
8
Top_Mask
2
SHAPE_SQ_364_364_0_0_0_0
10
0.0000000
20
0.0000000
41
1.0000000
42
1.0000000
43
1.0000000
50
0.0000000
0
ENDBLK
0
BLOCK
2
0603pad57
8
0
70
0
10
0.0000000
20
0.0000000
0
INSERT
8
Top_Mask
2
SHAPE_SQ_364_364_0_0_0_0
10
0.0000000
20
0.0000000
41
1.0000000
42
1.0000000
43
1.0000000
50
0.0000000
0
ENDBLK
0
BLOCK
2
P_SX80Y26D0T18
8
0
70
0
10
0.0000000
20
0.0000000
0
INSERT
8
Top_Mask
2
SHAPE_SQ_850_310_0_0_0_0
10
0.0000000
20
0.0000000
41
1.0000000
42
1.0000000
43
1.0000000
50
0.0000000
0
ENDBLK
0
BLOCK
2
P_SX80Y26D0T39
8
0
70
0
10
0.0000000
20
0.0000000
0
INSERT
8
Top_Mask
2
SHAPE_SQ_850_310_0_0_0_0
10
0.0000000
20
0.0000000
41
1.0000000
42
1.0000000
43
1.0000000
50
0.0000000
0
ENDBLK
0
BLOCK
2
P_SX80Y26D0T38
8
0
70
0
10
0.0000000
20
0.0000000
0
INSERT
8
Top_Mask
2
SHAPE_SQ_850_310_0_0_0_0
10
0.0000000
20
0.0000000
41
1.0000000
42
1.0000000
43
1.0000000
50
0.0000000
0
ENDBLK
0
BLOCK
2
P_SX80Y26D0T40
8
0
70
0
10
0.0000000
20
0.0000000
0
INSERT
8
Top_Mask
2
SHAPE_SQ_850_310_0_0_0_0
10
0.0000000
20
0.0000000
41
1.0000000
42
1.0000000
43
1.0000000
50
0.0000000
0
ENDBLK
0
BLOCK
2
P_SX80Y26D0T28
8
0
70
0
10
0.0000000
20
0.0000000
0
INSERT
8
Top_Mask
2
SHAPE_SQ_850_310_0_0_0_0
10
0.0000000
20
0.0000000
41
1.0000000
42
1.0000000
43
1.0000000
50
0.0000000
0
ENDBLK
0
BLOCK
2
P_SX80Y26D0T1
8
0
70
0
10
0.0000000
20
0.0000000
0
INSERT
8
Top_Mask
2
SHAPE_SQ_850_310_0_0_0_0
10
0.0000000
20
0.0000000
41
1.0000000
42
1.0000000
43
1.0000000
50
0.0000000
0
ENDBLK
0
BLOCK
2
small080519
8
0
70
0
10
0.0000000
20
0.0000000
0
INSERT
8
Top_Mask
2
SHAPE_SQ_450_650_0_0_0_0
10
0.0000000
20
0.0000000
41
1.0000000
42
1.0000000
43
1.0000000
50
0.0000000
0
ENDBLK
0
BLOCK
2
065_0_8mm_round47
8
0
70
0
10
0.0000000
20
0.0000000
0
INSERT
8
Top_Mask
2
SHAPE_EL_443_443_0_0_0_0
10
0.0000000
20
0.0000000
41
1.0000000
42
1.0000000
43
1.0000000
50
0.0000000
0
ENDBLK
0
BLOCK
2
small1206__1_2
8
0
70
0
10
0.0000000
20
0.0000000
0
INSERT
8
Top_Mask
2
SHAPE_SQ_384_837_0_0_0_0
10
0.0000000
20
0.0000000
41
1.0000000
42
1.0000000
43
1.0000000
50
0.0000000
0
ENDBLK
0
BLOCK
2
small1206__1_18
8
0
70
0
10
0.0000000
20
0.0000000
0
INSERT
8
Top_Mask
2
SHAPE_SQ_384_837_0_0_0_0
10
0.0000000
20
0.0000000
41
1.0000000
42
1.0000000
43
1.0000000
50
0.0000000
0
ENDBLK
0
BLOCK
2
EF20X63TOP18
8
0
70
0
10
0.0000000
20
0.0000000
0
INSERT
8
Top_Mask
2
SHAPE_SQ_246_679_0_0_0_0
10
0.0000000
20
0.0000000
41
1.0000000
42
1.0000000
43
1.0000000
50
0.0000000
0
ENDBLK
0
BLOCK
2
EF20X63TOP140
8
0
70
0
10
0.0000000
20
0.0000000
0
INSERT
8
Top_Mask
2
SHAPE_SQ_246_679_0_0_0_0
10
0.0000000
20
0.0000000
41
1.0000000
42
1.0000000
43
1.0000000
50
0.0000000
0
ENDBLK
0
BLOCK
2
EF20X63TOP130
8
0
70
0
10
0.0000000
20
0.0000000
0
INSERT
8
Top_Mask
2
SHAPE_SQ_246_679_0_0_0_0
10
0.0000000
20
0.0000000
41
1.0000000
42
1.0000000
43
1.0000000
50
0.0000000
0
ENDBLK
0
BLOCK
2
EF20X63TOP157
8
0
70
0
10
0.0000000
20
0.0000000
0
INSERT
8
Top_Mask
2
SHAPE_SQ_246_679_0_0_0_0
10
0.0000000
20
0.0000000
41
1.0000000
42
1.0000000
43
1.0000000
50
0.0000000
0
ENDBLK
0
BLOCK
2
EF20X63TOP127
8
0
70
0
10
0.0000000
20
0.0000000
0
INSERT
8
Top_Mask
2
SHAPE_SQ_246_679_0_0_0_0
10
0.0000000
20
0.0000000
41
1.0000000
42
1.0000000
43
1.0000000
50
0.0000000
0
ENDBLK
0
BLOCK
2
EF20X63TOP138
8
0
70
0
10
0.0000000
20
0.0000000
0
INSERT
8
Top_Mask
2
SHAPE_SQ_246_679_0_0_0_0
10
0.0000000
20
0.0000000
41
1.0000000
42
1.0000000
43
1.0000000
50
0.0000000
0
ENDBLK
0
BLOCK
2
EF20X63TOP111
8
0
70
0
10
0.0000000
20
0.0000000
0
INSERT
8
Top_Mask
2
SHAPE_SQ_246_679_0_0_0_0
10
0.0000000
20
0.0000000
41
1.0000000
42
1.0000000
43
1.0000000
50
0.0000000
0
ENDBLK
0
BLOCK
2
EF20X63TOP110
8
0
70
0
10
0.0000000
20
0.0000000
0
INSERT
8
Top_Mask
2
SHAPE_SQ_246_679_0_0_0_0
10
0.0000000
20
0.0000000
41
1.0000000
42
1.0000000
43
1.0000000
50
0.0000000
0
ENDBLK
0
BLOCK
2
EF20X63TOP19
8
0
70
0
10
0.0000000
20
0.0000000
0
INSERT
8
Top_Mask
2
SHAPE_SQ_246_679_0_0_0_0
10
0.0000000
20
0.0000000
41
1.0000000
42
1.0000000
43
1.0000000
50
0.0000000
0
ENDBLK
0
BLOCK
2
EF20X63TOP114
8
0
70
0
10
0.0000000
20
0.0000000
0
INSERT
8
Top_Mask
2
SHAPE_SQ_246_679_0_0_0_0
10
0.0000000
20
0.0000000
41
1.0000000
42
1.0000000
43
1.0000000
50
0.0000000
0
ENDBLK
0
BLOCK
2
EF20X63TOP113
8
0
70
0
10
0.0000000
20
0.0000000
0
INSERT
8
Top_Mask
2
SHAPE_SQ_246_679_0_0_0_0
10
0.0000000
20
0.0000000
41
1.0000000
42
1.0000000
43
1.0000000
50
0.0000000
0
ENDBLK
0
BLOCK
2
EF20X63TOP17
8
0
70
0
10
0.0000000
20
0.0000000
0
INSERT
8
Top_Mask
2
SHAPE_SQ_246_679_0_0_0_0
10
0.0000000
20
0.0000000
41
1.0000000
42
1.0000000
43
1.0000000
50
0.0000000
0
ENDBLK
0
BLOCK
2
EF20X63TOP13
8
0
70
0
10
0.0000000
20
0.0000000
0
INSERT
8
Top_Mask
2
SHAPE_SQ_246_679_0_0_0_0
10
0.0000000
20
0.0000000
41
1.0000000
42
1.0000000
43
1.0000000
50
0.0000000
0
ENDBLK
0
BLOCK
2
EF20X63TOP14
8
0
70
0
10
0.0000000
20
0.0000000
0
INSERT
8
Top_Mask
2
SHAPE_SQ_246_679_0_0_0_0
10
0.0000000
20
0.0000000
41
1.0000000
42
1.0000000
43
1.0000000
50
0.0000000
0
ENDBLK
0
BLOCK
2
EF20X63TOP15
8
0
70
0
10
0.0000000
20
0.0000000
0
INSERT
8
Top_Mask
2
SHAPE_SQ_246_679_0_0_0_0
10
0.0000000
20
0.0000000
41
1.0000000
42
1.0000000
43
1.0000000
50
0.0000000
0
ENDBLK
0
BLOCK
2
EF20X63TOP16
8
0
70
0
10
0.0000000
20
0.0000000
0
INSERT
8
Top_Mask
2
SHAPE_SQ_246_679_0_0_0_0
10
0.0000000
20
0.0000000
41
1.0000000
42
1.0000000
43
1.0000000
50
0.0000000
0
ENDBLK
0
BLOCK
2
EF20X63TOP11
8
0
70
0
10
0.0000000
20
0.0000000
0
INSERT
8
Top_Mask
2
SHAPE_SQ_246_679_0_0_0_0
10
0.0000000
20
0.0000000
41
1.0000000
42
1.0000000
43
1.0000000
50
0.0000000
0
ENDBLK
0
BLOCK
2
EF20X63TOP122
8
0
70
0
10
0.0000000
20
0.0000000
0
INSERT
8
Top_Mask
2
SHAPE_SQ_246_679_0_0_0_0
10
0.0000000
20
0.0000000
41
1.0000000
42
1.0000000
43
1.0000000
50
0.0000000
0
ENDBLK
0
BLOCK
2
EF20X63TOP134
8
0
70
0
10
0.0000000
20
0.0000000
0
INSERT
8
Top_Mask
2
SHAPE_SQ_246_679_0_0_0_0
10
0.0000000
20
0.0000000
41
1.0000000
42
1.0000000
43
1.0000000
50
0.0000000
0
ENDBLK
0
BLOCK
2
EF20X63TOP139
8
0
70
0
10
0.0000000
20
0.0000000
0
INSERT
8
Top_Mask
2
SHAPE_SQ_246_679_0_0_0_0
10
0.0000000
20
0.0000000
41
1.0000000
42
1.0000000
43
1.0000000
50
0.0000000
0
ENDBLK
0
BLOCK
2
EF20X63TOP141
8
0
70
0
10
0.0000000
20
0.0000000
0
INSERT
8
Top_Mask
2
SHAPE_SQ_246_679_0_0_0_0
10
0.0000000
20
0.0000000
41
1.0000000
42
1.0000000
43
1.0000000
50
0.0000000
0
ENDBLK
0
BLOCK
2
EF20X63TOP142
8
0
70
0
10
0.0000000
20
0.0000000
0
INSERT
8
Top_Mask
2
SHAPE_SQ_246_679_0_0_0_0
10
0.0000000
20
0.0000000
41
1.0000000
42
1.0000000
43
1.0000000
50
0.0000000
0
ENDBLK
0
BLOCK
2
EF20X63TOP117
8
0
70
0
10
0.0000000
20
0.0000000
0
INSERT
8
Top_Mask
2
SHAPE_SQ_246_679_0_0_0_0
10
0.0000000
20
0.0000000
41
1.0000000
42
1.0000000
43
1.0000000
50
0.0000000
0
ENDBLK
0
BLOCK
2
EF20X63TOP116
8
0
70
0
10
0.0000000
20
0.0000000
0
INSERT
8
Top_Mask
2
SHAPE_SQ_246_679_0_0_0_0
10
0.0000000
20
0.0000000
41
1.0000000
42
1.0000000
43
1.0000000
50
0.0000000
0
ENDBLK
0
BLOCK
2
EF20X63TOP129
8
0
70
0
10
0.0000000
20
0.0000000
0
INSERT
8
Top_Mask
2
SHAPE_SQ_246_679_0_0_0_0
10
0.0000000
20
0.0000000
41
1.0000000
42
1.0000000
43
1.0000000
50
0.0000000
0
ENDBLK
0
BLOCK
2
EF20X63TOP128
8
0
70
0
10
0.0000000
20
0.0000000
0
INSERT
8
Top_Mask
2
SHAPE_SQ_246_679_0_0_0_0
10
0.0000000
20
0.0000000
41
1.0000000
42
1.0000000
43
1.0000000
50
0.0000000
0
ENDBLK
0
BLOCK
2
EF20X63TOP118
8
0
70
0
10
0.0000000
20
0.0000000
0
INSERT
8
Top_Mask
2
SHAPE_SQ_246_679_0_0_0_0
10
0.0000000
20
0.0000000
41
1.0000000
42
1.0000000
43
1.0000000
50
0.0000000
0
ENDBLK
0
BLOCK
2
EF20X63TOP165
8
0
70
0
10
0.0000000
20
0.0000000
0
INSERT
8
Top_Mask
2
SHAPE_SQ_246_679_0_0_0_0
10
0.0000000
20
0.0000000
41
1.0000000
42
1.0000000
43
1.0000000
50
0.0000000
0
ENDBLK
0
BLOCK
2
EF20X63TOP162
8
0
70
0
10
0.0000000
20
0.0000000
0
INSERT
8
Top_Mask
2
SHAPE_SQ_246_679_0_0_0_0
10
0.0000000
20
0.0000000
41
1.0000000
42
1.0000000
43
1.0000000
50
0.0000000
0
ENDBLK
0
BLOCK
2
EF20X63TOP126
8
0
70
0
10
0.0000000
20
0.0000000
0
INSERT
8
Top_Mask
2
SHAPE_SQ_246_679_0_0_0_0
10
0.0000000
20
0.0000000
41
1.0000000
42
1.0000000
43
1.0000000
50
0.0000000
0
ENDBLK
0
BLOCK
2
EF20X63TOP164
8
0
70
0
10
0.0000000
20
0.0000000
0
INSERT
8
Top_Mask
2
SHAPE_SQ_246_679_0_0_0_0
10
0.0000000
20
0.0000000
41
1.0000000
42
1.0000000
43
1.0000000
50
0.0000000
0
ENDBLK
0
BLOCK
2
EF20X63TOP147
8
0
70
0
10
0.0000000
20
0.0000000
0
INSERT
8
Top_Mask
2
SHAPE_SQ_246_679_0_0_0_0
10
0.0000000
20
0.0000000
41
1.0000000
42
1.0000000
43
1.0000000
50
0.0000000
0
ENDBLK
0
BLOCK
2
EF20X63TOP161
8
0
70
0
10
0.0000000
20
0.0000000
0
INSERT
8
Top_Mask
2
SHAPE_SQ_246_679_0_0_0_0
10
0.0000000
20
0.0000000
41
1.0000000
42
1.0000000
43
1.0000000
50
0.0000000
0
ENDBLK
0
BLOCK
2
EF20X63TOP160
8
0
70
0
10
0.0000000
20
0.0000000
0
INSERT
8
Top_Mask
2
SHAPE_SQ_246_679_0_0_0_0
10
0.0000000
20
0.0000000
41
1.0000000
42
1.0000000
43
1.0000000
50
0.0000000
0
ENDBLK
0
BLOCK
2
EF20X63TOP112
8
0
70
0
10
0.0000000
20
0.0000000
0
INSERT
8
Top_Mask
2
SHAPE_SQ_246_679_0_0_0_0
10
0.0000000
20
0.0000000
41
1.0000000
42
1.0000000
43
1.0000000
50
0.0000000
0
ENDBLK
0
BLOCK
2
EF20X63TOP159
8
0
70
0
10
0.0000000
20
0.0000000
0
INSERT
8
Top_Mask
2
SHAPE_SQ_246_679_0_0_0_0
10
0.0000000
20
0.0000000
41
1.0000000
42
1.0000000
43
1.0000000
50
0.0000000
0
ENDBLK
0
BLOCK
2
EF20X63TOP119
8
0
70
0
10
0.0000000
20
0.0000000
0
INSERT
8
Top_Mask
2
SHAPE_SQ_246_679_0_0_0_0
10
0.0000000
20
0.0000000
41
1.0000000
42
1.0000000
43
1.0000000
50
0.0000000
0
ENDBLK
0
BLOCK
2
EF20X63TOP137
8
0
70
0
10
0.0000000
20
0.0000000
0
INSERT
8
Top_Mask
2
SHAPE_SQ_246_679_0_0_0_0
10
0.0000000
20
0.0000000
41
1.0000000
42
1.0000000
43
1.0000000
50
0.0000000
0
ENDBLK
0
BLOCK
2
ledhole
8
0
70
0
10
0.0000000
20
0.0000000
0
INSERT
8
Top_Mask
2
SHAPE_EL_2018_2018_0_0_0_0
10
0.0000000
20
0.0000000
41
1.0000000
42
1.0000000
43
1.0000000
50
0.0000000
0
ENDBLK
0
BLOCK
2
pansw61
8
0
70
0
10
0.0000000
20
0.0000000
0
INSERT
8
Top_Mask
2
SHAPE_SQ_601_640_0_0_0_0
10
0.0000000
20
0.0000000
41
1.0000000
42
1.0000000
43
1.0000000
50
0.0000000
0
ENDBLK
0
BLOCK
2
pantact36
8
0
70
0
10
0.0000000
20
0.0000000
0
INSERT
8
Top_Mask
2
SHAPE_EL_404_404_0_0_0_0
10
0.0000000
20
0.0000000
41
1.0000000
42
1.0000000
43
1.0000000
50
0.0000000
0
ENDBLK
0
BLOCK
2
pansw18
8
0
70
0
10
0.0000000
20
0.0000000
0
INSERT
8
Top_Mask
2
SHAPE_SQ_601_640_0_0_0_0
10
0.0000000
20
0.0000000
41
1.0000000
42
1.0000000
43
1.0000000
50
0.0000000
0
ENDBLK
0
BLOCK
2
pantact74
8
0
70
0
10
0.0000000
20
0.0000000
0
INSERT
8
Top_Mask
2
SHAPE_EL_404_404_0_0_0_0
10
0.0000000
20
0.0000000
41
1.0000000
42
1.0000000
43
1.0000000
50
0.0000000
0
ENDBLK
0
BLOCK
2
0603pad62
8
0
70
0
10
0.0000000
20
0.0000000
0
INSERT
8
Top_Mask
2
SHAPE_SQ_364_364_0_0_0_0
10
0.0000000
20
0.0000000
41
1.0000000
42
1.0000000
43
1.0000000
50
0.0000000
0
ENDBLK
0
BLOCK
2
0603pad63
8
0
70
0
10
0.0000000
20
0.0000000
0
INSERT
8
Top_Mask
2
SHAPE_SQ_364_364_0_0_0_0
10
0.0000000
20
0.0000000
41
1.0000000
42
1.0000000
43
1.0000000
50
0.0000000
0
ENDBLK
0
BLOCK
2
swpad__1_72_F
8
0
70
0
10
0.0000000
20
0.0000000
0
INSERT
8
Top_Mask
2
SHAPE_SQ_950_640_0_0_0_0
10
0.0000000
20
0.0000000
41
1.0000000
42
1.0000000
43
1.0000000
50
0.0000000
0
ENDBLK
0
BLOCK
2
swpad__1_58_F
8
0
70
0
10
0.0000000
20
0.0000000
0
INSERT
8
Top_Mask
2
SHAPE_SQ_950_640_0_0_0_0
10
0.0000000
20
0.0000000
41
1.0000000
42
1.0000000
43
1.0000000
50
0.0000000
0
ENDBLK
0
BLOCK
2
swpad__1_18_F
8
0
70
0
10
0.0000000
20
0.0000000
0
INSERT
8
Top_Mask
2
SHAPE_SQ_950_640_0_0_0_0
10
0.0000000
20
0.0000000
41
1.0000000
42
1.0000000
43
1.0000000
50
0.0000000
0
ENDBLK
0
BLOCK
2
swpad__1_73_F
8
0
70
0
10
0.0000000
20
0.0000000
0
INSERT
8
Top_Mask
2
SHAPE_SQ_950_640_0_0_0_0
10
0.0000000
20
0.0000000
41
1.0000000
42
1.0000000
43
1.0000000
50
0.0000000
0
ENDBLK
0
BLOCK
2
swpad__1_33_F
8
0
70
0
10
0.0000000
20
0.0000000
0
INSERT
8
Top_Mask
2
SHAPE_SQ_950_640_0_0_0_0
10
0.0000000
20
0.0000000
41
1.0000000
42
1.0000000
43
1.0000000
50
0.0000000
0
ENDBLK
0
BLOCK
2
P_EX59Y59D35141
8
0
70
0
10
0.0000000
20
0.0000000
0
INSERT
8
Top_Mask
2
SHAPE_OV_640_640_0_0_0_0
10
0.0000000
20
0.0000000
41
1.0000000
42
1.0000000
43
1.0000000
50
0.0000000
0
ENDBLK
0
BLOCK
2
P_SX59Y59D35122
8
0
70
0
10
0.0000000
20
0.0000000
0
INSERT
8
Top_Mask
2
SHAPE_SQ_640_640_0_0_0_0
10
0.0000000
20
0.0000000
41
1.0000000
42
1.0000000
43
1.0000000
50
0.0000000
0
ENDBLK
0
BLOCK
2
P_EX59Y59D35144
8
0
70
0
10
0.0000000
20
0.0000000
0
INSERT
8
Top_Mask
2
SHAPE_OV_640_640_0_0_0_0
10
0.0000000
20
0.0000000
41
1.0000000
42
1.0000000
43
1.0000000
50
0.0000000
0
ENDBLK
0
BLOCK
2
P_SX59Y59D3511
8
0
70
0
10
0.0000000
20
0.0000000
0
INSERT
8
Top_Mask
2
SHAPE_SQ_640_640_0_0_0_0
10
0.0000000
20
0.0000000
41
1.0000000
42
1.0000000
43
1.0000000
50
0.0000000
0
ENDBLK
0
BLOCK
2
P_EX59Y59D351
8
0
70
0
10
0.0000000
20
0.0000000
0
INSERT
8
Top_Mask
2
SHAPE_OV_640_640_0_0_0_0
10
0.0000000
20
0.0000000
41
1.0000000
42
1.0000000
43
1.0000000
50
0.0000000
0
ENDBLK
0
BLOCK
2
P_EX59Y59D35143
8
0
70
0
10
0.0000000
20
0.0000000
0
INSERT
8
Top_Mask
2
SHAPE_OV_640_640_0_0_0_0
10
0.0000000
20
0.0000000
41
1.0000000
42
1.0000000
43
1.0000000
50
0.0000000
0
ENDBLK
0
BLOCK
2
P_EX59Y59D35142
8
0
70
0
10
0.0000000
20
0.0000000
0
INSERT
8
Top_Mask
2
SHAPE_OV_640_640_0_0_0_0
10
0.0000000
20
0.0000000
41
1.0000000
42
1.0000000
43
1.0000000
50
0.0000000
0
ENDBLK
0
BLOCK
2
P_EX59Y59D35160
8
0
70
0
10
0.0000000
20
0.0000000
0
INSERT
8
Top_Mask
2
SHAPE_OV_640_640_0_0_0_0
10
0.0000000
20
0.0000000
41
1.0000000
42
1.0000000
43
1.0000000
50
0.0000000
0
ENDBLK
0
BLOCK
2
P_EX59Y59D35165
8
0
70
0
10
0.0000000
20
0.0000000
0
INSERT
8
Top_Mask
2
SHAPE_OV_640_640_0_0_0_0
10
0.0000000
20
0.0000000
41
1.0000000
42
1.0000000
43
1.0000000
50
0.0000000
0
ENDBLK
0
BLOCK
2
P_EX59Y59D35164
8
0
70
0
10
0.0000000
20
0.0000000
0
INSERT
8
Top_Mask
2
SHAPE_OV_640_640_0_0_0_0
10
0.0000000
20
0.0000000
41
1.0000000
42
1.0000000
43
1.0000000
50
0.0000000
0
ENDBLK
0
BLOCK
2
P_EX59Y59D35159
8
0
70
0
10
0.0000000
20
0.0000000
0
INSERT
8
Top_Mask
2
SHAPE_OV_640_640_0_0_0_0
10
0.0000000
20
0.0000000
41
1.0000000
42
1.0000000
43
1.0000000
50
0.0000000
0
ENDBLK
0
BLOCK
2
ffcpaste1
8
0
70
0
10
0.0000000
20
0.0000000
0
ENDBLK
0
BLOCK
2
ffcpaste
8
0
70
0
10
0.0000000
20
0.0000000
0
ENDBLK
0
BLOCK
2
EF51X12TOP12
8
0
70
0
10
0.0000000
20
0.0000000
0
INSERT
8
Top_Mask
2
SHAPE_SQ_601_148_0_0_0_0
10
0.0000000
20
0.0000000
41
1.0000000
42
1.0000000
43
1.0000000
50
0.0000000
0
ENDBLK
0
BLOCK
2
EF51X12TOP13
8
0
70
0
10
0.0000000
20
0.0000000
0
INSERT
8
Top_Mask
2
SHAPE_SQ_601_148_0_0_0_0
10
0.0000000
20
0.0000000
41
1.0000000
42
1.0000000
43
1.0000000
50
0.0000000
0
ENDBLK
0
BLOCK
2
EF51X12TOP114
8
0
70
0
10
0.0000000
20
0.0000000
0
INSERT
8
Top_Mask
2
SHAPE_SQ_601_148_0_0_0_0
10
0.0000000
20
0.0000000
41
1.0000000
42
1.0000000
43
1.0000000
50
0.0000000
0
ENDBLK
0
BLOCK
2
EF51X12TOP14
8
0
70
0
10
0.0000000
20
0.0000000
0
INSERT
8
Top_Mask
2
SHAPE_SQ_601_148_0_0_0_0
10
0.0000000
20
0.0000000
41
1.0000000
42
1.0000000
43
1.0000000
50
0.0000000
0
ENDBLK
0
BLOCK
2
EF51X12TOP11
8
0
70
0
10
0.0000000
20
0.0000000
0
INSERT
8
Top_Mask
2
SHAPE_SQ_601_148_0_0_0_0
10
0.0000000
20
0.0000000
41
1.0000000
42
1.0000000
43
1.0000000
50
0.0000000
0
ENDBLK
0
BLOCK
2
EF51X12TOP15
8
0
70
0
10
0.0000000
20
0.0000000
0
INSERT
8
Top_Mask
2
SHAPE_SQ_601_148_0_0_0_0
10
0.0000000
20
0.0000000
41
1.0000000
42
1.0000000
43
1.0000000
50
0.0000000
0
ENDBLK
0
BLOCK
2
EF51X12TOP17
8
0
70
0
10
0.0000000
20
0.0000000
0
INSERT
8
Top_Mask
2
SHAPE_SQ_601_148_0_0_0_0
10
0.0000000
20
0.0000000
41
1.0000000
42
1.0000000
43
1.0000000
50
0.0000000
0
ENDBLK
0
BLOCK
2
EF51X12TOP16
8
0
70
0
10
0.0000000
20
0.0000000
0
INSERT
8
Top_Mask
2
SHAPE_SQ_601_148_0_0_0_0
10
0.0000000
20
0.0000000
41
1.0000000
42
1.0000000
43
1.0000000
50
0.0000000
0
ENDBLK
0
BLOCK
2
EF51X12TOP18
8
0
70
0
10
0.0000000
20
0.0000000
0
INSERT
8
Top_Mask
2
SHAPE_SQ_601_148_0_0_0_0
10
0.0000000
20
0.0000000
41
1.0000000
42
1.0000000
43
1.0000000
50
0.0000000
0
ENDBLK
0
BLOCK
2
EF51X12TOP19
8
0
70
0
10
0.0000000
20
0.0000000
0
INSERT
8
Top_Mask
2
SHAPE_SQ_601_148_0_0_0_0
10
0.0000000
20
0.0000000
41
1.0000000
42
1.0000000
43
1.0000000
50
0.0000000
0
ENDBLK
0
BLOCK
2
EF51X12TOP110
8
0
70
0
10
0.0000000
20
0.0000000
0
INSERT
8
Top_Mask
2
SHAPE_SQ_601_148_0_0_0_0
10
0.0000000
20
0.0000000
41
1.0000000
42
1.0000000
43
1.0000000
50
0.0000000
0
ENDBLK
0
BLOCK
2
EF51X12TOP111
8
0
70
0
10
0.0000000
20
0.0000000
0
INSERT
8
Top_Mask
2
SHAPE_SQ_601_148_0_0_0_0
10
0.0000000
20
0.0000000
41
1.0000000
42
1.0000000
43
1.0000000
50
0.0000000
0
ENDBLK
0
BLOCK
2
EF51X12TOP1
8
0
70
0
10
0.0000000
20
0.0000000
0
INSERT
8
Top_Mask
2
SHAPE_SQ_601_148_0_0_0_0
10
0.0000000
20
0.0000000
41
1.0000000
42
1.0000000
43
1.0000000
50
0.0000000
0
ENDBLK
0
BLOCK
2
EF51X12TOP117
8
0
70
0
10
0.0000000
20
0.0000000
0
INSERT
8
Top_Mask
2
SHAPE_SQ_601_148_0_0_0_0
10
0.0000000
20
0.0000000
41
1.0000000
42
1.0000000
43
1.0000000
50
0.0000000
0
ENDBLK
0
BLOCK
2
EF51X12TOP116
8
0
70
0
10
0.0000000
20
0.0000000
0
INSERT
8
Top_Mask
2
SHAPE_SQ_601_148_0_0_0_0
10
0.0000000
20
0.0000000
41
1.0000000
42
1.0000000
43
1.0000000
50
0.0000000
0
ENDBLK
0
BLOCK
2
EF51X12TOP113
8
0
70
0
10
0.0000000
20
0.0000000
0
INSERT
8
Top_Mask
2
SHAPE_SQ_601_148_0_0_0_0
10
0.0000000
20
0.0000000
41
1.0000000
42
1.0000000
43
1.0000000
50
0.0000000
0
ENDBLK
0
BLOCK
2
EF51X12TOP120
8
0
70
0
10
0.0000000
20
0.0000000
0
INSERT
8
Top_Mask
2
SHAPE_SQ_601_148_0_0_0_0
10
0.0000000
20
0.0000000
41
1.0000000
42
1.0000000
43
1.0000000
50
0.0000000
0
ENDBLK
0
BLOCK
2
EF51X12TOP112
8
0
70
0
10
0.0000000
20
0.0000000
0
INSERT
8
Top_Mask
2
SHAPE_SQ_601_148_0_0_0_0
10
0.0000000
20
0.0000000
41
1.0000000
42
1.0000000
43
1.0000000
50
0.0000000
0
ENDBLK
0
BLOCK
2
ffcmir1
8
0
70
0
10
0.0000000
20
0.0000000
0
INSERT
8
Top_Mask
2
SHAPE_PL_956_1094_0_0_0_0
10
0.0000000
20
0.0000000
41
1.0000000
42
1.0000000
43
1.0000000
50
0.0000000
0
ENDBLK
0
BLOCK
2
EF51X12TOP115
8
0
70
0
10
0.0000000
20
0.0000000
0
INSERT
8
Top_Mask
2
SHAPE_SQ_601_148_0_0_0_0
10
0.0000000
20
0.0000000
41
1.0000000
42
1.0000000
43
1.0000000
50
0.0000000
0
ENDBLK
0
BLOCK
2
ffcpoly1
8
0
70
0
10
0.0000000
20
0.0000000
0
INSERT
8
Top_Mask
2
SHAPE_PL_956_1094_0_0_0_1
10
0.0000000
20
0.0000000
41
1.0000000
42
1.0000000
43
1.0000000
50
0.0000000
0
ENDBLK
0
BLOCK
2
swpad__1_70_F
8
0
70
0
10
0.0000000
20
0.0000000
0
INSERT
8
Top_Mask
2
SHAPE_SQ_950_640_0_0_0_0
10
0.0000000
20
0.0000000
41
1.0000000
42
1.0000000
43
1.0000000
50
0.0000000
0
ENDBLK
0
BLOCK
2
swpad__1_67_F
8
0
70
0
10
0.0000000
20
0.0000000
0
INSERT
8
Top_Mask
2
SHAPE_SQ_950_640_0_0_0_0
10
0.0000000
20
0.0000000
41
1.0000000
42
1.0000000
43
1.0000000
50
0.0000000
0
ENDBLK
0
BLOCK
2
swpad__1_69_F
8
0
70
0
10
0.0000000
20
0.0000000
0
INSERT
8
Top_Mask
2
SHAPE_SQ_950_640_0_0_0_0
10
0.0000000
20
0.0000000
41
1.0000000
42
1.0000000
43
1.0000000
50
0.0000000
0
ENDBLK
0
BLOCK
2
sd1_F
8
0
70
0
10
0.0000000
20
0.0000000
0
INSERT
8
Top_Mask
2
SHAPE_SQ_325_522_0_0_0_0
10
0.0000000
20
0.0000000
41
1.0000000
42
1.0000000
43
1.0000000
50
0.0000000
0
ENDBLK
0
BLOCK
2
sd140_F
8
0
70
0
10
0.0000000
20
0.0000000
0
INSERT
8
Top_Mask
2
SHAPE_SQ_325_522_0_0_0_0
10
0.0000000
20
0.0000000
41
1.0000000
42
1.0000000
43
1.0000000
50
0.0000000
0
ENDBLK
0
BLOCK
2
sd11_F
8
0
70
0
10
0.0000000
20
0.0000000
0
INSERT
8
Top_Mask
2
SHAPE_SQ_325_522_0_0_0_0
10
0.0000000
20
0.0000000
41
1.0000000
42
1.0000000
43
1.0000000
50
0.0000000
0
ENDBLK
0
BLOCK
2
sd138_F
8
0
70
0
10
0.0000000
20
0.0000000
0
INSERT
8
Top_Mask
2
SHAPE_SQ_325_522_0_0_0_0
10
0.0000000
20
0.0000000
41
1.0000000
42
1.0000000
43
1.0000000
50
0.0000000
0
ENDBLK
0
BLOCK
2
sd118_F
8
0
70
0
10
0.0000000
20
0.0000000
0
INSERT
8
Top_Mask
2
SHAPE_SQ_325_522_0_0_0_0
10
0.0000000
20
0.0000000
41
1.0000000
42
1.0000000
43
1.0000000
50
0.0000000
0
ENDBLK
0
BLOCK
2
sd134_F
8
0
70
0
10
0.0000000
20
0.0000000
0
INSERT
8
Top_Mask
2
SHAPE_SQ_325_522_0_0_0_0
10
0.0000000
20
0.0000000
41
1.0000000
42
1.0000000
43
1.0000000
50
0.0000000
0
ENDBLK
0
BLOCK
2
sd41_F
8
0
70
0
10
0.0000000
20
0.0000000
0
INSERT
8
Top_Mask
2
SHAPE_SQ_561_798_0_0_0_0
10
0.0000000
20
0.0000000
41
1.0000000
42
1.0000000
43
1.0000000
50
0.0000000
0
ENDBLK
0
BLOCK
2
sd21_F
8
0
70
0
10
0.0000000
20
0.0000000
0
INSERT
8
Top_Mask
2
SHAPE_SQ_443_522_0_0_0_0
10
0.0000000
20
0.0000000
41
1.0000000
42
1.0000000
43
1.0000000
50
0.0000000
0
ENDBLK
0
BLOCK
2
sd335_F
8
0
70
0
10
0.0000000
20
0.0000000
0
INSERT
8
Top_Mask
2
SHAPE_SQ_364_443_0_0_0_0
10
0.0000000
20
0.0000000
41
1.0000000
42
1.0000000
43
1.0000000
50
0.0000000
0
ENDBLK
0
BLOCK
2
sd139_F
8
0
70
0
10
0.0000000
20
0.0000000
0
INSERT
8
Top_Mask
2
SHAPE_SQ_325_522_0_0_0_0
10
0.0000000
20
0.0000000
41
1.0000000
42
1.0000000
43
1.0000000
50
0.0000000
0
ENDBLK
0
BLOCK
2
sd51_F
8
0
70
0
10
0.0000000
20
0.0000000
0
INSERT
8
Top_Mask
2
SHAPE_SQ_561_1231_0_0_0_0
10
0.0000000
20
0.0000000
41
1.0000000
42
1.0000000
43
1.0000000
50
0.0000000
0
ENDBLK
0
BLOCK
2
swpad__1_71_F
8
0
70
0
10
0.0000000
20
0.0000000
0
INSERT
8
Top_Mask
2
SHAPE_SQ_950_640_0_0_0_0
10
0.0000000
20
0.0000000
41
1.0000000
42
1.0000000
43
1.0000000
50
0.0000000
0
ENDBLK
0
BLOCK
2
swpad__1_66_F
8
0
70
0
10
0.0000000
20
0.0000000
0
INSERT
8
Top_Mask
2
SHAPE_SQ_950_640_0_0_0_0
10
0.0000000
20
0.0000000
41
1.0000000
42
1.0000000
43
1.0000000
50
0.0000000
0
ENDBLK
0
BLOCK
2
Cross
8
0
70
0
10
0.0000000
20
0.0000000
0
LINE
8
Drill_Layer
6
CONTINUOUS
10
0.0000000
20
-12.7000000
11
0.0000000
21
12.7000000
0
LINE
8
Drill_Layer
6
CONTINUOUS
10
-12.7000000
20
0.0000000
11
12.7000000
21
0.0000000
0
ENDBLK
0
BLOCK
2
X
8
0
70
0
10
0.0000000
20
0.0000000
0
LINE
8
Drill_Layer
6
CONTINUOUS
10
-12.7000000
20
12.7000000
11
12.7000000
21
-12.7000000
0
LINE
8
Drill_Layer
6
CONTINUOUS
10
12.7000000
20
12.7000000
11
-12.7000000
21
-12.7000000
0
ENDBLK
0
BLOCK
2
Y
8
0
70
0
10
0.0000000
20
0.0000000
0
LINE
8
Drill_Layer
6
CONTINUOUS
10
0.0000000
20
-12.7000000
11
0.0000000
21
0.0000000
0
LINE
8
Drill_Layer
6
CONTINUOUS
10
-12.7000000
20
12.7000000
11
0.0000000
21
0.0000000
0
LINE
8
Drill_Layer
6
CONTINUOUS
10
0.0000000
20
0.0000000
11
12.7000000
21
12.7000000
0
ENDBLK
0
BLOCK
2
T
8
0
70
0
10
0.0000000
20
0.0000000
0
LINE
8
Drill_Layer
6
CONTINUOUS
10
-12.7000000
20
0.0000000
11
12.7000000
21
0.0000000
0
LINE
8
Drill_Layer
6
CONTINUOUS
10
0.0000000
20
-12.7000000
11
0.0000000
21
0.0000000
0
ENDBLK
0
BLOCK
2
Hour
8
0
70
0
10
0.0000000
20
0.0000000
0
LINE
8
Drill_Layer
6
CONTINUOUS
10
-12.7000000
20
12.7000000
11
12.7000000
21
12.7000000
0
LINE
8
Drill_Layer
6
CONTINUOUS
10
12.7000000
20
-12.7000000
11
-12.7000000
21
-12.7000000
0
LINE
8
Drill_Layer
6
CONTINUOUS
10
-12.7000000
20
12.7000000
11
12.7000000
21
-12.7000000
0
LINE
8
Drill_Layer
6
CONTINUOUS
10
12.7000000
20
12.7000000
11
-12.7000000
21
-12.7000000
0
ENDBLK
0
BLOCK
2
Side_Hour
8
0
70
0
10
0.0000000
20
0.0000000
0
LINE
8
Drill_Layer
6
CONTINUOUS
10
12.7000000
20
12.7000000
11
12.7000000
21
-12.7000000
0
LINE
8
Drill_Layer
6
CONTINUOUS
10
-12.7000000
20
-12.7000000
11
-12.7000000
21
12.7000000
0
LINE
8
Drill_Layer
6
CONTINUOUS
10
-12.7000000
20
12.7000000
11
12.7000000
21
-12.7000000
0
LINE
8
Drill_Layer
6
CONTINUOUS
10
12.7000000
20
12.7000000
11
-12.7000000
21
-12.7000000
0
ENDBLK
0
BLOCK
2
Box_Line
8
0
70
0
10
0.0000000
20
0.0000000
0
LINE
8
Drill_Layer
6
CONTINUOUS
10
-12.7000000
20
12.7000000
11
12.7000000
21
12.7000000
0
LINE
8
Drill_Layer
6
CONTINUOUS
10
12.7000000
20
12.7000000
11
12.7000000
21
-12.7000000
0
LINE
8
Drill_Layer
6
CONTINUOUS
10
12.7000000
20
-12.7000000
11
-12.7000000
21
-12.7000000
0
LINE
8
Drill_Layer
6
CONTINUOUS
10
-12.7000000
20
-12.7000000
11
-12.7000000
21
12.7000000
0
LINE
8
Drill_Layer
6
CONTINUOUS
10
0.0000000
20
12.7000000
11
0.0000000
21
0.0000000
0
ENDBLK
0
BLOCK
2
POLY_S4_L6_2067
8
Top_Silk
70
0
10
0.0000000
20
0.0000000
0
LINE
8
Top_Silk
6
CONTINUOUS
10
321.9350000
20
533.7800000
11
321.9350000
21
533.1450000
0
LINE
8
Top_Silk
6
CONTINUOUS
10
321.9350000
20
533.1450000
11
322.5700000
21
533.1450000
0
LINE
8
Top_Silk
6
CONTINUOUS
10
322.5700000
20
533.1450000
11
322.5700000
21
533.7800000
0
LINE
8
Top_Silk
6
CONTINUOUS
10
322.5700000
20
533.7800000
11
321.9350000
21
533.7800000
0
ENDBLK
0
BLOCK
2
POLY_S3_L6_10166
8
Top_Silk
70
0
10
0.0000000
20
0.0000000
0
LINE
8
Top_Silk
6
CONTINUOUS
10
354.1250000
20
521.7500000
11
354.1250000
21
519.7500000
0
LINE
8
Top_Silk
6
CONTINUOUS
10
354.1250000
20
519.7500000
11
355.6250000
21
520.7500000
0
LINE
8
Top_Silk
6
CONTINUOUS
10
355.6250000
20
520.7500000
11
354.1250000
21
521.7500000
0
ENDBLK
0
BLOCK
2
SMALL0603R_971
8
0
70
0
10
0.0000000
20
0.0000000
0
LINE
8
Top_Silk
6
CONTINUOUS
10
287.9250000
20
493.1250000
11
286.8250000
21
493.1250000
0
LINE
8
Top_Silk
6
CONTINUOUS
10
287.9250000
20
490.3750000
11
286.8250000
21
490.3750000
0
LINE
8
Top_Silk
6
CONTINUOUS
10
287.9250000
20
493.1250000
11
287.9250000
21
490.3750000
0
LINE
8
Top_Silk
6
CONTINUOUS
10
286.8250000
20
493.1250000
11
286.8250000
21
490.3750000
0
ENDBLK
0
BLOCK
2
PAD_LABEL_984
8
0
70
0
10
0.0000000
20
0.0000000
0
ENDBLK
0
BLOCK
2
SMALL0805C_992
8
0
70
0
10
0.0000000
20
0.0000000
0
LINE
8
Top_Silk
6
CONTINUOUS
10
289.3395000
20
537.0475000
11
285.8470000
21
537.0475000
0
LINE
8
Top_Silk
6
CONTINUOUS
10
285.8470000
20
538.9525000
11
289.3395000
21
538.9525000
0
LINE
8
Top_Silk
6
CONTINUOUS
10
289.3395000
20
538.9525000
11
289.3395000
21
537.0475000
0
LINE
8
Top_Silk
6
CONTINUOUS
10
285.8470000
20
537.0475000
11
285.8470000
21
538.9525000
0
ENDBLK
0
BLOCK
2
SMALL0603R_1004
8
0
70
0
10
0.0000000
20
0.0000000
0
LINE
8
Top_Silk
6
CONTINUOUS
10
290.0000000
20
531.4250000
11
290.0000000
21
530.3250000
0
LINE
8
Top_Silk
6
CONTINUOUS
10
292.7500000
20
531.4250000
11
292.7500000
21
530.3250000
0
LINE
8
Top_Silk
6
CONTINUOUS
10
290.0000000
20
531.4250000
11
292.7500000
21
531.4250000
0
LINE
8
Top_Silk
6
CONTINUOUS
10
290.0000000
20
530.3250000
11
292.7500000
21
530.3250000
0
ENDBLK
0
BLOCK
2
SMALL0603_1019
8
0
70
0
10
0.0000000
20
0.0000000
0
LINE
8
Top_Silk
6
CONTINUOUS
10
292.7500000
20
528.5750000
11
292.7500000
21
529.6750000
0
LINE
8
Top_Silk
6
CONTINUOUS
10
290.0000000
20
528.5750000
11
290.0000000
21
529.6750000
0
LINE
8
Top_Silk
6
CONTINUOUS
10
292.7500000
20
528.5750000
11
290.0000000
21
528.5750000
0
LINE
8
Top_Silk
6
CONTINUOUS
10
292.7500000
20
529.6750000
11
290.0000000
21
529.6750000
0
ENDBLK
0
BLOCK
2
SMALL0603R_1032
8
0
70
0
10
0.0000000
20
0.0000000
0
LINE
8
Top_Silk
6
CONTINUOUS
10
299.9500000
20
490.2500000
11
301.0500000
21
490.2500000
0
LINE
8
Top_Silk
6
CONTINUOUS
10
299.9500000
20
493.0000000
11
301.0500000
21
493.0000000
0
LINE
8
Top_Silk
6
CONTINUOUS
10
299.9500000
20
490.2500000
11
299.9500000
21
493.0000000
0
LINE
8
Top_Silk
6
CONTINUOUS
10
301.0500000
20
490.2500000
11
301.0500000
21
493.0000000
0
ENDBLK
0
BLOCK
2
SMALL0603R_1044
8
0
70
0
10
0.0000000
20
0.0000000
0
LINE
8
Top_Silk
6
CONTINUOUS
10
297.9500000
20
490.2500000
11
299.0500000
21
490.2500000
0
LINE
8
Top_Silk
6
CONTINUOUS
10
297.9500000
20
493.0000000
11
299.0500000
21
493.0000000
0
LINE
8
Top_Silk
6
CONTINUOUS
10
297.9500000
20
490.2500000
11
297.9500000
21
493.0000000
0
LINE
8
Top_Silk
6
CONTINUOUS
10
299.0500000
20
490.2500000
11
299.0500000
21
493.0000000
0
ENDBLK
0
BLOCK
2
SMALL0603R_1057
8
0
70
0
10
0.0000000
20
0.0000000
0
LINE
8
Top_Silk
6
CONTINUOUS
10
298.0000000
20
530.4250000
11
298.0000000
21
529.3250000
0
LINE
8
Top_Silk
6
CONTINUOUS
10
300.7500000
20
530.4250000
11
300.7500000
21
529.3250000
0
LINE
8
Top_Silk
6
CONTINUOUS
10
298.0000000
20
530.4250000
11
300.7500000
21
530.4250000
0
LINE
8
Top_Silk
6
CONTINUOUS
10
298.0000000
20
529.3250000
11
300.7500000
21
529.3250000
0
ENDBLK
0
BLOCK
2
SMALL0805C_1073
8
0
70
0
10
0.0000000
20
0.0000000
0
LINE
8
Top_Silk
6
CONTINUOUS
10
301.8395000
20
533.7975000
11
298.3470000
21
533.7975000
0
LINE
8
Top_Silk
6
CONTINUOUS
10
298.3470000
20
535.7025000
11
301.8395000
21
535.7025000
0
LINE
8
Top_Silk
6
CONTINUOUS
10
301.8395000
20
535.7025000
11
301.8395000
21
533.7975000
0
LINE
8
Top_Silk
6
CONTINUOUS
10
298.3470000
20
533.7975000
11
298.3470000
21
535.7025000
0
ENDBLK
0
BLOCK
2
SMALL0805C_1085
8
0
70
0
10
0.0000000
20
0.0000000
0
LINE
8
Top_Silk
6
CONTINUOUS
10
301.8395000
20
537.0475000
11
298.3470000
21
537.0475000
0
LINE
8
Top_Silk
6
CONTINUOUS
10
298.3470000
20
538.9525000
11
301.8395000
21
538.9525000
0
LINE
8
Top_Silk
6
CONTINUOUS
10
301.8395000
20
538.9525000
11
301.8395000
21
537.0475000
0
LINE
8
Top_Silk
6
CONTINUOUS
10
298.3470000
20
537.0475000
11
298.3470000
21
538.9525000
0
ENDBLK
0
BLOCK
2
SMALL0603_1130
8
0
70
0
10
0.0000000
20
0.0000000
0
LINE
8
Top_Silk
6
CONTINUOUS
10
316.0500000
20
530.7500000
11
314.9500000
21
530.7500000
0
LINE
8
Top_Silk
6
CONTINUOUS
10
316.0500000
20
528.0000000
11
314.9500000
21
528.0000000
0
LINE
8
Top_Silk
6
CONTINUOUS
10
316.0500000
20
530.7500000
11
316.0500000
21
528.0000000
0
LINE
8
Top_Silk
6
CONTINUOUS
10
314.9500000
20
530.7500000
11
314.9500000
21
528.0000000
0
ENDBLK
0
BLOCK
2
PAD_LABEL_1174
8
0
70
0
10
0.0000000
20
0.0000000
0
ENDBLK
0
BLOCK
2
SMALL0603R_1208
8
0
70
0
10
0.0000000
20
0.0000000
0
LINE
8
Top_Silk
6
CONTINUOUS
10
332.2500000
20
505.9500000
11
332.2500000
21
507.0500000
0
LINE
8
Top_Silk
6
CONTINUOUS
10
329.5000000
20
505.9500000
11
329.5000000
21
507.0500000
0
LINE
8
Top_Silk
6
CONTINUOUS
10
332.2500000
20
505.9500000
11
329.5000000
21
505.9500000
0
LINE
8
Top_Silk
6
CONTINUOUS
10
332.2500000
20
507.0500000
11
329.5000000
21
507.0500000
0
ENDBLK
0
BLOCK
2
SMALL0805C_1220
8
0
70
0
10
0.0000000
20
0.0000000
0
LINE
8
Top_Silk
6
CONTINUOUS
10
332.9645000
20
503.6725000
11
329.4720000
21
503.6725000
0
LINE
8
Top_Silk
6
CONTINUOUS
10
329.4720000
20
505.5775000
11
332.9645000
21
505.5775000
0
LINE
8
Top_Silk
6
CONTINUOUS
10
332.9645000
20
505.5775000
11
332.9645000
21
503.6725000
0
LINE
8
Top_Silk
6
CONTINUOUS
10
329.4720000
20
503.6725000
11
329.4720000
21
505.5775000
0
ENDBLK
0
BLOCK
2
PAD_LABEL_1232
8
0
70
0
10
0.0000000
20
0.0000000
0
ENDBLK
0
BLOCK
2
PAD_LABEL_1242
8
0
70
0
10
0.0000000
20
0.0000000
0
ENDBLK
0
BLOCK
2
PAD_LABEL_1248
8
0
70
0
10
0.0000000
20
0.0000000
0
ENDBLK
0
BLOCK
2
SMALL0603R_1254
8
0
70
0
10
0.0000000
20
0.0000000
0
LINE
8
Top_Silk
6
CONTINUOUS
10
329.3750000
20
515.1750000
11
329.3750000
21
514.0750000
0
LINE
8
Top_Silk
6
CONTINUOUS
10
332.1250000
20
515.1750000
11
332.1250000
21
514.0750000
0
LINE
8
Top_Silk
6
CONTINUOUS
10
329.3750000
20
515.1750000
11
332.1250000
21
515.1750000
0
LINE
8
Top_Silk
6
CONTINUOUS
10
329.3750000
20
514.0750000
11
332.1250000
21
514.0750000
0
ENDBLK
0
BLOCK
2
SMALL0603_1266
8
0
70
0
10
0.0000000
20
0.0000000
0
LINE
8
Top_Silk
6
CONTINUOUS
10
332.1250000
20
515.7000000
11
332.1250000
21
516.8000000
0
LINE
8
Top_Silk
6
CONTINUOUS
10
329.3750000
20
515.7000000
11
329.3750000
21
516.8000000
0
LINE
8
Top_Silk
6
CONTINUOUS
10
332.1250000
20
515.7000000
11
329.3750000
21
515.7000000
0
LINE
8
Top_Silk
6
CONTINUOUS
10
332.1250000
20
516.8000000
11
329.3750000
21
516.8000000
0
ENDBLK
0
BLOCK
2
LGA12_ACCEL_1288
8
0
70
0
10
0.0000000
20
0.0000000
0
LINE
8
Top_Silk
6
CONTINUOUS
10
340.6250000
20
492.1250000
11
342.6250000
21
492.1250000
0
LINE
8
Top_Silk
6
CONTINUOUS
10
342.6250000
20
492.1250000
11
342.6250000
21
490.1250000
0
LINE
8
Top_Silk
6
CONTINUOUS
10
342.6250000
20
490.1250000
11
340.6250000
21
490.1250000
0
LINE
8
Top_Silk
6
CONTINUOUS
10
340.6250000
20
490.1250000
11
340.6250000
21
492.1250000
0
CIRCLE
8
Top_Silk
6
CONTINUOUS
10
340.2500000
20
492.5000000
40
0.1250000
0
ENDBLK
0
BLOCK
2
PAD_LABEL_1319
8
0
70
0
10
0.0000000
20
0.0000000
0
ENDBLK
0
BLOCK
2
SMALL0603R_1332
8
0
70
0
10
0.0000000
20
0.0000000
0
LINE
8
Top_Silk
6
CONTINUOUS
10
345.2500000
20
491.8000000
11
345.2500000
21
490.7000000
0
LINE
8
Top_Silk
6
CONTINUOUS
10
348.0000000
20
491.8000000
11
348.0000000
21
490.7000000
0
LINE
8
Top_Silk
6
CONTINUOUS
10
345.2500000
20
491.8000000
11
348.0000000
21
491.8000000
0
LINE
8
Top_Silk
6
CONTINUOUS
10
345.2500000
20
490.7000000
11
348.0000000
21
490.7000000
0
ENDBLK
0
BLOCK
2
SMALL0603R_1344
8
0
70
0
10
0.0000000
20
0.0000000
0
LINE
8
Top_Silk
6
CONTINUOUS
10
348.0000000
20
492.2000000
11
348.0000000
21
493.3000000
0
LINE
8
Top_Silk
6
CONTINUOUS
10
345.2500000
20
492.2000000
11
345.2500000
21
493.3000000
0
LINE
8
Top_Silk
6
CONTINUOUS
10
348.0000000
20
492.2000000
11
345.2500000
21
492.2000000
0
LINE
8
Top_Silk
6
CONTINUOUS
10
348.0000000
20
493.3000000
11
345.2500000
21
493.3000000
0
ENDBLK
0
BLOCK
2
PAD_LABEL_1370
8
0
70
0
10
0.0000000
20
0.0000000
0
ENDBLK
0
BLOCK
2
SMALL0603_1380
8
0
70
0
10
0.0000000
20
0.0000000
0
LINE
8
Top_Silk
6
CONTINUOUS
10
348.2500000
20
512.8250000
11
348.2500000
21
513.9250000
0
LINE
8
Top_Silk
6
CONTINUOUS
10
345.5000000
20
512.8250000
11
345.5000000
21
513.9250000
0
LINE
8
Top_Silk
6
CONTINUOUS
10
348.2500000
20
512.8250000
11
345.5000000
21
512.8250000
0
LINE
8
Top_Silk
6
CONTINUOUS
10
348.2500000
20
513.9250000
11
345.5000000
21
513.9250000
0
ENDBLK
0
BLOCK
2
SMALL0603R_1395
8
0
70
0
10
0.0000000
20
0.0000000
0
LINE
8
Top_Silk
6
CONTINUOUS
10
351.9500000
20
491.8750000
11
353.0500000
21
491.8750000
0
LINE
8
Top_Silk
6
CONTINUOUS
10
351.9500000
20
494.6250000
11
353.0500000
21
494.6250000
0
LINE
8
Top_Silk
6
CONTINUOUS
10
351.9500000
20
491.8750000
11
351.9500000
21
494.6250000
0
LINE
8
Top_Silk
6
CONTINUOUS
10
353.0500000
20
491.8750000
11
353.0500000
21
494.6250000
0
ENDBLK
0
BLOCK
2
PAD_LABEL_1409
8
0
70
0
10
0.0000000
20
0.0000000
0
ENDBLK
0
BLOCK
2
PAD_LABEL_1415
8
0
70
0
10
0.0000000
20
0.0000000
0
ENDBLK
0
BLOCK
2
SMALL0603R_1423
8
0
70
0
10
0.0000000
20
0.0000000
0
LINE
8
Top_Silk
6
CONTINUOUS
10
355.5000000
20
511.7000000
11
355.5000000
21
512.8000000
0
LINE
8
Top_Silk
6
CONTINUOUS
10
352.7500000
20
511.7000000
11
352.7500000
21
512.8000000
0
LINE
8
Top_Silk
6
CONTINUOUS
10
355.5000000
20
511.7000000
11
352.7500000
21
511.7000000
0
LINE
8
Top_Silk
6
CONTINUOUS
10
355.5000000
20
512.8000000
11
352.7500000
21
512.8000000
0
ENDBLK
0
BLOCK
2
FID_1451
8
0
70
0
10
0.0000000
20
0.0000000
0
ENDBLK
0
BLOCK
2
HDR1X2_1470
8
0
70
0
10
0.0000000
20
0.0000000
0
LINE
8
Top_Silk
6
CONTINUOUS
10
274.4800000
20
534.6900000
11
277.0200000
21
534.6900000
0
LINE
8
Top_Silk
6
CONTINUOUS
10
274.4800000
20
539.7700000
11
274.4800000
21
534.6900000
0
LINE
8
Top_Silk
6
CONTINUOUS
10
274.4800000
20
539.7700000
11
277.0200000
21
539.7700000
0
LINE
8
Top_Silk
6
CONTINUOUS
10
277.0200000
20
539.7700000
11
277.0200000
21
534.6900000
0
ENDBLK
0
BLOCK
2
SMALL0603R_1481
8
0
70
0
10
0.0000000
20
0.0000000
0
LINE
8
Top_Silk
6
CONTINUOUS
10
292.7500000
20
531.8250000
11
292.7500000
21
532.9250000
0
LINE
8
Top_Silk
6
CONTINUOUS
10
290.0000000
20
531.8250000
11
290.0000000
21
532.9250000
0
LINE
8
Top_Silk
6
CONTINUOUS
10
292.7500000
20
531.8250000
11
290.0000000
21
531.8250000
0
LINE
8
Top_Silk
6
CONTINUOUS
10
292.7500000
20
532.9250000
11
290.0000000
21
532.9250000
0
ENDBLK
0
BLOCK
2
PAD_LABEL_1495
8
0
70
0
10
0.0000000
20
0.0000000
0
ENDBLK
0
BLOCK
2
SMALL0603R_1501
8
0
70
0
10
0.0000000
20
0.0000000
0
LINE
8
Top_Silk
6
CONTINUOUS
10
298.0000000
20
532.6750000
11
298.0000000
21
531.5750000
0
LINE
8
Top_Silk
6
CONTINUOUS
10
300.7500000
20
532.6750000
11
300.7500000
21
531.5750000
0
LINE
8
Top_Silk
6
CONTINUOUS
10
298.0000000
20
532.6750000
11
300.7500000
21
532.6750000
0
LINE
8
Top_Silk
6
CONTINUOUS
10
298.0000000
20
531.5750000
11
300.7500000
21
531.5750000
0
ENDBLK
0
BLOCK
2
PAD_LABEL_1514
8
0
70
0
10
0.0000000
20
0.0000000
0
ENDBLK
0
BLOCK
2
SMALL0603R_1529
8
0
70
0
10
0.0000000
20
0.0000000
0
LINE
8
Top_Silk
6
CONTINUOUS
10
316.1250000
20
525.7000000
11
316.1250000
21
526.8000000
0
LINE
8
Top_Silk
6
CONTINUOUS
10
313.3750000
20
525.7000000
11
313.3750000
21
526.8000000
0
LINE
8
Top_Silk
6
CONTINUOUS
10
316.1250000
20
525.7000000
11
313.3750000
21
525.7000000
0
LINE
8
Top_Silk
6
CONTINUOUS
10
316.1250000
20
526.8000000
11
313.3750000
21
526.8000000
0
ENDBLK
0
BLOCK
2
PAD_LABEL_1559
8
0
70
0
10
0.0000000
20
0.0000000
0
ENDBLK
0
BLOCK
2
PAD_LABEL_1565
8
0
70
0
10
0.0000000
20
0.0000000
0
ENDBLK
0
BLOCK
2
PAD_LABEL_1571
8
0
70
0
10
0.0000000
20
0.0000000
0
ENDBLK
0
BLOCK
2
PAD_LABEL_1580
8
0
70
0
10
0.0000000
20
0.0000000
0
ENDBLK
0
BLOCK
2
SMALL0603_1586
8
0
70
0
10
0.0000000
20
0.0000000
0
LINE
8
Top_Silk
6
CONTINUOUS
10
332.1250000
20
516.9500000
11
332.1250000
21
518.0500000
0
LINE
8
Top_Silk
6
CONTINUOUS
10
329.3750000
20
516.9500000
11
329.3750000
21
518.0500000
0
LINE
8
Top_Silk
6
CONTINUOUS
10
332.1250000
20
516.9500000
11
329.3750000
21
516.9500000
0
LINE
8
Top_Silk
6
CONTINUOUS
10
332.1250000
20
518.0500000
11
329.3750000
21
518.0500000
0
ENDBLK
0
BLOCK
2
PAD_LABEL_1599
8
0
70
0
10
0.0000000
20
0.0000000
0
ENDBLK
0
BLOCK
2
PAD_LABEL_1605
8
0
70
0
10
0.0000000
20
0.0000000
0
ENDBLK
0
BLOCK
2
PAD_LABEL_1615
8
0
70
0
10
0.0000000
20
0.0000000
0
ENDBLK
0
BLOCK
2
SMALL0603_1621
8
0
70
0
10
0.0000000
20
0.0000000
0
LINE
8
Top_Silk
6
CONTINUOUS
10
348.0000000
20
493.7000000
11
348.0000000
21
494.8000000
0
LINE
8
Top_Silk
6
CONTINUOUS
10
345.2500000
20
493.7000000
11
345.2500000
21
494.8000000
0
LINE
8
Top_Silk
6
CONTINUOUS
10
348.0000000
20
493.7000000
11
345.2500000
21
493.7000000
0
LINE
8
Top_Silk
6
CONTINUOUS
10
348.0000000
20
494.8000000
11
345.2500000
21
494.8000000
0
ENDBLK
0
BLOCK
2
SMALL0603R_1635
8
0
70
0
10
0.0000000
20
0.0000000
0
LINE
8
Top_Silk
6
CONTINUOUS
10
355.5000000
20
510.2000000
11
355.5000000
21
511.3000000
0
LINE
8
Top_Silk
6
CONTINUOUS
10
352.7500000
20
510.2000000
11
352.7500000
21
511.3000000
0
LINE
8
Top_Silk
6
CONTINUOUS
10
355.5000000
20
510.2000000
11
352.7500000
21
510.2000000
0
LINE
8
Top_Silk
6
CONTINUOUS
10
355.5000000
20
511.3000000
11
352.7500000
21
511.3000000
0
ENDBLK
0
BLOCK
2
SMALL0603R_1647
8
0
70
0
10
0.0000000
20
0.0000000
0
LINE
8
Top_Silk
6
CONTINUOUS
10
354.7000000
20
495.2500000
11
355.8000000
21
495.2500000
0
LINE
8
Top_Silk
6
CONTINUOUS
10
354.7000000
20
498.0000000
11
355.8000000
21
498.0000000
0
LINE
8
Top_Silk
6
CONTINUOUS
10
354.7000000
20
495.2500000
11
354.7000000
21
498.0000000
0
LINE
8
Top_Silk
6
CONTINUOUS
10
355.8000000
20
495.2500000
11
355.8000000
21
498.0000000
0
ENDBLK
0
BLOCK
2
SMALL0603_1659
8
0
70
0
10
0.0000000
20
0.0000000
0
LINE
8
Top_Silk
6
CONTINUOUS
10
354.0500000
20
498.0000000
11
352.9500000
21
498.0000000
0
LINE
8
Top_Silk
6
CONTINUOUS
10
354.0500000
20
495.2500000
11
352.9500000
21
495.2500000
0
LINE
8
Top_Silk
6
CONTINUOUS
10
354.0500000
20
498.0000000
11
354.0500000
21
495.2500000
0
LINE
8
Top_Silk
6
CONTINUOUS
10
352.9500000
20
498.0000000
11
352.9500000
21
495.2500000
0
ENDBLK
0
BLOCK
2
SMALL0603_1671
8
0
70
0
10
0.0000000
20
0.0000000
0
LINE
8
Top_Silk
6
CONTINUOUS
10
353.3250000
20
501.0000000
11
354.4250000
21
501.0000000
0
LINE
8
Top_Silk
6
CONTINUOUS
10
353.3250000
20
503.7500000
11
354.4250000
21
503.7500000
0
LINE
8
Top_Silk
6
CONTINUOUS
10
353.3250000
20
501.0000000
11
353.3250000
21
503.7500000
0
LINE
8
Top_Silk
6
CONTINUOUS
10
354.4250000
20
501.0000000
11
354.4250000
21
503.7500000
0
ENDBLK
0
BLOCK
2
REFDES_ONLY_1684
8
0
70
0
10
0.0000000
20
0.0000000
0
ENDBLK
0
BLOCK
2
SOT23_EMU_1707
8
0
70
0
10
0.0000000
20
0.0000000
0
LINE
8
Top_Silk
6
CONTINUOUS
10
355.5000000
20
492.1250000
11
355.5000000
21
491.6250000
0
LINE
8
Top_Silk
6
CONTINUOUS
10
354.5000000
20
491.6250000
11
354.5000000
21
492.1250000
0
LINE
8
Top_Silk
6
CONTINUOUS
10
355.5000000
20
491.6250000
11
354.5000000
21
491.6250000
0
LINE
8
Top_Silk
6
CONTINUOUS
10
354.5000000
20
494.6250000
11
355.5000000
21
494.6250000
0
LINE
8
Top_Silk
6
CONTINUOUS
10
355.5000000
20
494.6250000
11
355.5000000
21
494.1250000
0
LINE
8
Top_Silk
6
CONTINUOUS
10
354.5000000
20
494.1250000
11
354.5000000
21
494.6250000
0
ENDBLK
0
BLOCK
2
LED_5MM_1722
8
0
70
0
10
0.0000000
20
0.0000000
0
ARC
8
Top_Silk
6
CONTINUOUS
10
354.3750000
20
524.6250000
40
2.5400000
50
37.0000000
51
323.0000000
0
LINE
8
Top_Silk
6
CONTINUOUS
10
356.4070000
20
526.1490000
11
356.4070000
21
523.1010000
0
ENDBLK
0
BLOCK
2
FID_1731
8
0
70
0
10
0.0000000
20
0.0000000
0
ENDBLK
0
BLOCK
2
SMALL0603R_1738
8
0
70
0
10
0.0000000
20
0.0000000
0
LINE
8
Top_Silk
6
CONTINUOUS
10
297.3750000
20
531.5750000
11
297.3750000
21
532.6750000
0
LINE
8
Top_Silk
6
CONTINUOUS
10
294.6250000
20
531.5750000
11
294.6250000
21
532.6750000
0
LINE
8
Top_Silk
6
CONTINUOUS
10
297.3750000
20
531.5750000
11
294.6250000
21
531.5750000
0
LINE
8
Top_Silk
6
CONTINUOUS
10
297.3750000
20
532.6750000
11
294.6250000
21
532.6750000
0
ENDBLK
0
BLOCK
2
SOT23_5_1750
8
0
70
0
10
0.0000000
20
0.0000000
0
LINE
8
Top_Silk
6
CONTINUOUS
10
289.4825000
20
532.6750000
11
285.9900000
21
532.6750000
0
LINE
8
Top_Silk
6
CONTINUOUS
10
285.9900000
20
528.9900000
11
289.4825000
21
528.9900000
0
LINE
8
Top_Silk
6
CONTINUOUS
10
289.5000000
20
529.0000000
11
289.4825000
21
532.6750000
0
LINE
8
Top_Silk
6
CONTINUOUS
10
285.9900000
20
532.6750000
11
286.0000000
21
529.0000000
0
ENDBLK
0
BLOCK
2
SOT23_EMU_1765
8
0
70
0
10
0.0000000
20
0.0000000
0
LINE
8
Top_Silk
6
CONTINUOUS
10
296.6250000
20
530.2500000
11
297.1250000
21
530.2500000
0
LINE
8
Top_Silk
6
CONTINUOUS
10
297.1250000
20
529.2500000
11
296.6250000
21
529.2500000
0
LINE
8
Top_Silk
6
CONTINUOUS
10
297.1250000
20
530.2500000
11
297.1250000
21
529.2500000
0
LINE
8
Top_Silk
6
CONTINUOUS
10
294.1250000
20
529.2500000
11
294.1250000
21
530.2500000
0
LINE
8
Top_Silk
6
CONTINUOUS
10
294.1250000
20
530.2500000
11
294.6250000
21
530.2500000
0
LINE
8
Top_Silk
6
CONTINUOUS
10
294.6250000
20
529.2500000
11
294.1250000
21
529.2500000
0
ENDBLK
0
BLOCK
2
SMALL0805C_1780
8
0
70
0
10
0.0000000
20
0.0000000
0
LINE
8
Top_Silk
6
CONTINUOUS
10
289.5355000
20
538.9525000
11
293.0280000
21
538.9525000
0
LINE
8
Top_Silk
6
CONTINUOUS
10
293.0280000
20
537.0475000
11
289.5355000
21
537.0475000
0
LINE
8
Top_Silk
6
CONTINUOUS
10
289.5355000
20
537.0475000
11
289.5355000
21
538.9525000
0
LINE
8
Top_Silk
6
CONTINUOUS
10
293.0280000
20
538.9525000
11
293.0280000
21
537.0475000
0
ENDBLK
0
BLOCK
2
COIL_SM_3218_1794
8
0
70
0
10
0.0000000
20
0.0000000
0
LINE
8
Top_Silk
6
CONTINUOUS
10
294.1000000
20
539.0500000
11
297.8500000
21
539.0500000
0
LINE
8
Top_Silk
6
CONTINUOUS
10
297.8500000
20
536.7500000
11
294.1000000
21
536.7500000
0
LINE
8
Top_Silk
6
CONTINUOUS
10
294.1000000
20
536.7750000
11
294.1000000
21
539.0250000
0
LINE
8
Top_Silk
6
CONTINUOUS
10
297.9000000
20
539.0250000
11
297.9000000
21
536.7750000
0
ENDBLK
0
BLOCK
2
PAD_LABEL_1823
8
0
70
0
10
0.0000000
20
0.0000000
0
ENDBLK
0
BLOCK
2
PAD_LABEL_1829
8
0
70
0
10
0.0000000
20
0.0000000
0
ENDBLK
0
BLOCK
2
SMALL0603R_1837
8
0
70
0
10
0.0000000
20
0.0000000
0
LINE
8
Top_Silk
6
CONTINUOUS
10
333.1250000
20
519.7000000
11
333.1250000
21
520.8000000
0
LINE
8
Top_Silk
6
CONTINUOUS
10
330.3750000
20
519.7000000
11
330.3750000
21
520.8000000
0
LINE
8
Top_Silk
6
CONTINUOUS
10
333.1250000
20
519.7000000
11
330.3750000
21
519.7000000
0
LINE
8
Top_Silk
6
CONTINUOUS
10
333.1250000
20
520.8000000
11
330.3750000
21
520.8000000
0
ENDBLK
0
BLOCK
2
SMALL0603_1849
8
0
70
0
10
0.0000000
20
0.0000000
0
LINE
8
Top_Silk
6
CONTINUOUS
10
330.3750000
20
522.1750000
11
330.3750000
21
521.0750000
0
LINE
8
Top_Silk
6
CONTINUOUS
10
333.1250000
20
522.1750000
11
333.1250000
21
521.0750000
0
LINE
8
Top_Silk
6
CONTINUOUS
10
330.3750000
20
522.1750000
11
333.1250000
21
522.1750000
0
LINE
8
Top_Silk
6
CONTINUOUS
10
330.3750000
20
521.0750000
11
333.1250000
21
521.0750000
0
ENDBLK
0
BLOCK
2
SOT23_5_1862
8
0
70
0
10
0.0000000
20
0.0000000
0
LINE
8
Top_Silk
6
CONTINUOUS
10
310.9900000
20
527.9900000
11
314.4825000
21
527.9900000
0
LINE
8
Top_Silk
6
CONTINUOUS
10
314.4825000
20
531.8000000
11
310.9900000
21
531.8000000
0
LINE
8
Top_Silk
6
CONTINUOUS
10
314.4825000
20
527.9900000
11
314.4825000
21
531.8000000
0
LINE
8
Top_Silk
6
CONTINUOUS
10
310.9900000
20
531.8000000
11
310.9900000
21
527.9900000
0
ENDBLK
0
BLOCK
2
SMALL0603_1878
8
0
70
0
10
0.0000000
20
0.0000000
0
LINE
8
Top_Silk
6
CONTINUOUS
10
344.6750000
20
492.7500000
11
343.5750000
21
492.7500000
0
LINE
8
Top_Silk
6
CONTINUOUS
10
344.6750000
20
490.0000000
11
343.5750000
21
490.0000000
0
LINE
8
Top_Silk
6
CONTINUOUS
10
344.6750000
20
492.7500000
11
344.6750000
21
490.0000000
0
LINE
8
Top_Silk
6
CONTINUOUS
10
343.5750000
20
492.7500000
11
343.5750000
21
490.0000000
0
ENDBLK
0
BLOCK
2
PAD_LABEL_1893
8
0
70
0
10
0.0000000
20
0.0000000
0
ENDBLK
0
BLOCK
2
SMALL0805C_1899
8
0
70
0
10
0.0000000
20
0.0000000
0
LINE
8
Top_Silk
6
CONTINUOUS
10
351.1605000
20
515.2025000
11
354.6530000
21
515.2025000
0
LINE
8
Top_Silk
6
CONTINUOUS
10
354.6530000
20
513.2975000
11
351.1605000
21
513.2975000
0
LINE
8
Top_Silk
6
CONTINUOUS
10
351.1605000
20
513.2975000
11
351.1605000
21
515.2025000
0
LINE
8
Top_Silk
6
CONTINUOUS
10
354.6530000
20
515.2025000
11
354.6530000
21
513.2975000
0
ENDBLK
0
BLOCK
2
SMALL0603R_1912
8
0
70
0
10
0.0000000
20
0.0000000
0
LINE
8
Top_Silk
6
CONTINUOUS
10
359.3750000
20
519.8250000
11
359.3750000
21
520.9250000
0
LINE
8
Top_Silk
6
CONTINUOUS
10
356.6250000
20
519.8250000
11
356.6250000
21
520.9250000
0
LINE
8
Top_Silk
6
CONTINUOUS
10
359.3750000
20
519.8250000
11
356.6250000
21
519.8250000
0
LINE
8
Top_Silk
6
CONTINUOUS
10
359.3750000
20
520.9250000
11
356.6250000
21
520.9250000
0
ENDBLK
0
BLOCK
2
REFDES_ONLY_1927
8
0
70
0
10
0.0000000
20
0.0000000
0
ENDBLK
0
BLOCK
2
COIL_SM_3218_1933
8
0
70
0
10
0.0000000
20
0.0000000
0
LINE
8
Top_Silk
6
CONTINUOUS
10
288.8000000
20
536.7750000
11
288.8000000
21
533.0250000
0
LINE
8
Top_Silk
6
CONTINUOUS
10
286.5000000
20
533.0250000
11
286.5000000
21
536.7750000
0
LINE
8
Top_Silk
6
CONTINUOUS
10
286.5250000
20
536.7750000
11
288.7750000
21
536.7750000
0
LINE
8
Top_Silk
6
CONTINUOUS
10
288.7750000
20
532.9750000
11
286.5250000
21
532.9750000
0
ENDBLK
0
BLOCK
2
SOT23_EMU_1945
8
0
70
0
10
0.0000000
20
0.0000000
0
LINE
8
Top_Silk
6
CONTINUOUS
10
291.7500000
20
533.7500000
11
291.7500000
21
533.2500000
0
LINE
8
Top_Silk
6
CONTINUOUS
10
290.7500000
20
533.2500000
11
290.7500000
21
533.7500000
0
LINE
8
Top_Silk
6
CONTINUOUS
10
291.7500000
20
533.2500000
11
290.7500000
21
533.2500000
0
LINE
8
Top_Silk
6
CONTINUOUS
10
290.7500000
20
536.2500000
11
291.7500000
21
536.2500000
0
LINE
8
Top_Silk
6
CONTINUOUS
10
291.7500000
20
536.2500000
11
291.7500000
21
535.7500000
0
LINE
8
Top_Silk
6
CONTINUOUS
10
290.7500000
20
535.7500000
11
290.7500000
21
536.2500000
0
ENDBLK
0
BLOCK
2
SW_TACT_SM_TYCO_FSM_1960
8
0
70
0
10
0.0000000
20
0.0000000
0
LINE
8
Top_Silk
6
CONTINUOUS
10
279.3905000
20
531.3270000
11
285.4230000
21
531.3270000
0
LINE
8
Top_Silk
6
CONTINUOUS
10
285.4230000
20
537.3595000
11
279.3905000
21
537.3595000
0
LINE
8
Top_Silk
6
CONTINUOUS
10
285.4230000
20
531.3270000
11
285.4230000
21
537.3595000
0
LINE
8
Top_Silk
6
CONTINUOUS
10
279.3905000
20
537.3595000
11
279.3905000
21
531.3270000
0
ENDBLK
0
BLOCK
2
SOT23_6_1974
8
0
70
0
10
0.0000000
20
0.0000000
0
CIRCLE
8
Top_Silk
6
CONTINUOUS
10
294.1665000
20
536.1360000
40
0.1904900
0
ENDBLK
0
BLOCK
2
CON_FFC30_0_5_XF2M_BACKLOCK_1999
8
0
70
0
10
0.0000000
20
0.0000000
0
LINE
8
Top_Silk
6
CONTINUOUS
10
328.2500000
20
502.5000000
11
328.2500000
21
503.3750000
0
LINE
8
Top_Silk
6
CONTINUOUS
10
328.1250000
20
519.5000000
11
328.1250000
21
518.6250000
0
LINE
8
Top_Silk
6
CONTINUOUS
10
323.1250000
20
519.5000000
11
323.1250000
21
502.5000000
0
LINE
8
Top_Silk
6
CONTINUOUS
10
325.1250000
20
502.5000000
11
328.2500000
21
502.5000000
0
LINE
8
Top_Silk
6
CONTINUOUS
10
325.0000000
20
519.5000000
11
328.1250000
21
519.5000000
0
ENDBLK
0
BLOCK
2
SMALL0603R_2044
8
0
70
0
10
0.0000000
20
0.0000000
0
LINE
8
Top_Silk
6
CONTINUOUS
10
312.8750000
20
525.7000000
11
312.8750000
21
526.8000000
0
LINE
8
Top_Silk
6
CONTINUOUS
10
310.1250000
20
525.7000000
11
310.1250000
21
526.8000000
0
LINE
8
Top_Silk
6
CONTINUOUS
10
312.8750000
20
525.7000000
11
310.1250000
21
525.7000000
0
LINE
8
Top_Silk
6
CONTINUOUS
10
312.8750000
20
526.8000000
11
310.1250000
21
526.8000000
0
ENDBLK
0
BLOCK
2
SO8_PICKPLACE_2056
8
0
70
0
10
0.0000000
20
0.0000000
0
INSERT
8
0
2
POLY_S4_L6_2067
10
0.0000000
20
0.0000000
41
1.0000000
42
1.0000000
43
1.0000000
50
0.0000000
0
ENDBLK
0
BLOCK
2
SMALL0805C_2071
8
0
70
0
10
0.0000000
20
0.0000000
0
LINE
8
Top_Silk
6
CONTINUOUS
10
340.2855000
20
510.8275000
11
343.7780000
21
510.8275000
0
LINE
8
Top_Silk
6
CONTINUOUS
10
343.7780000
20
508.9225000
11
340.2855000
21
508.9225000
0
LINE
8
Top_Silk
6
CONTINUOUS
10
340.2855000
20
508.9225000
11
340.2855000
21
510.8275000
0
LINE
8
Top_Silk
6
CONTINUOUS
10
343.7780000
20
510.8275000
11
343.7780000
21
508.9225000
0
ENDBLK
0
BLOCK
2
PAD_LABEL_2083
8
0
70
0
10
0.0000000
20
0.0000000
0
ENDBLK
0
BLOCK
2
COIL_SM_3218_2089
8
0
70
0
10
0.0000000
20
0.0000000
0
LINE
8
Top_Silk
6
CONTINUOUS
10
355.6000000
20
519.3000000
11
359.3500000
21
519.3000000
0
LINE
8
Top_Silk
6
CONTINUOUS
10
359.3500000
20
517.0000000
11
355.6000000
21
517.0000000
0
LINE
8
Top_Silk
6
CONTINUOUS
10
355.6000000
20
517.0250000
11
355.6000000
21
519.2750000
0
LINE
8
Top_Silk
6
CONTINUOUS
10
359.4000000
20
519.2750000
11
359.4000000
21
517.0250000
0
ENDBLK
0
BLOCK
2
QFP44_PICKPLACE_PIC_2101
8
0
70
0
10
0.0000000
20
0.0000000
0
LINE
8
Top_Silk
6
CONTINUOUS
10
341.8250000
20
506.0499900
11
350.4249900
21
506.0500000
0
LINE
8
Top_Silk
6
CONTINUOUS
10
341.8250100
20
497.4500000
11
350.4250000
21
497.4500100
0
LINE
8
Top_Silk
6
CONTINUOUS
10
341.8250000
20
506.0499900
11
341.8250100
21
497.4500000
0
LINE
8
Top_Silk
6
CONTINUOUS
10
350.4249900
20
506.0500000
11
350.4250000
21
497.4500100
0
CIRCLE
8
Top_Silk
6
CONTINUOUS
10
351.1750200
20
507.2500100
40
0.3824100
0
ENDBLK
0
BLOCK
2
SW_TACT_SM_PAN_EVQPSL02K_2157
8
0
70
0
10
0.0000000
20
0.0000000
0
LINE
8
Top_Silk
6
CONTINUOUS
10
352.7500000
20
533.0000000
11
352.7500000
21
539.1250000
0
LINE
8
Top_Silk
6
CONTINUOUS
10
356.7500000
20
533.0000000
11
352.7500000
21
533.0000000
0
LINE
8
Top_Silk
6
CONTINUOUS
10
352.7500000
20
539.1250000
11
356.7500000
21
539.1250000
0
LINE
8
Top_Silk
6
CONTINUOUS
10
356.7500000
20
539.1250000
11
356.7500000
21
533.0000000
0
ENDBLK
0
BLOCK
2
SMALL0603R_2173
8
0
70
0
10
0.0000000
20
0.0000000
0
LINE
8
Top_Silk
6
CONTINUOUS
10
358.4250000
20
525.1250000
11
357.3250000
21
525.1250000
0
LINE
8
Top_Silk
6
CONTINUOUS
10
358.4250000
20
522.3750000
11
357.3250000
21
522.3750000
0
LINE
8
Top_Silk
6
CONTINUOUS
10
358.4250000
20
525.1250000
11
358.4250000
21
522.3750000
0
LINE
8
Top_Silk
6
CONTINUOUS
10
357.3250000
20
525.1250000
11
357.3250000
21
522.3750000
0
ENDBLK
0
BLOCK
2
SW_TACT_SM_TYCO_FSM_2185
8
0
70
0
10
0.0000000
20
0.0000000
0
LINE
8
Top_Silk
6
CONTINUOUS
10
290.8905000
20
484.8270000
11
296.9230000
21
484.8270000
0
LINE
8
Top_Silk
6
CONTINUOUS
10
296.9230000
20
490.8595000
11
290.8905000
21
490.8595000
0
LINE
8
Top_Silk
6
CONTINUOUS
10
296.9230000
20
484.8270000
11
296.9230000
21
490.8595000
0
LINE
8
Top_Silk
6
CONTINUOUS
10
290.8905000
20
490.8595000
11
290.8905000
21
484.8270000
0
ENDBLK
0
BLOCK
2
SW_TACT_SM_TYCO_FSM_2199
8
0
70
0
10
0.0000000
20
0.0000000
0
LINE
8
Top_Silk
6
CONTINUOUS
10
302.3905000
20
484.8270000
11
308.4230000
21
484.8270000
0
LINE
8
Top_Silk
6
CONTINUOUS
10
308.4230000
20
490.8595000
11
302.3905000
21
490.8595000
0
LINE
8
Top_Silk
6
CONTINUOUS
10
308.4230000
20
484.8270000
11
308.4230000
21
490.8595000
0
LINE
8
Top_Silk
6
CONTINUOUS
10
302.3905000
20
490.8595000
11
302.3905000
21
484.8270000
0
ENDBLK
0
BLOCK
2
HDR1X13_2217
8
0
70
0
10
0.0000000
20
0.0000000
0
LINE
8
Top_Silk
6
CONTINUOUS
10
359.2700000
20
516.6250000
11
356.7300000
21
516.6250000
0
LINE
8
Top_Silk
6
CONTINUOUS
10
359.2700000
20
483.6050000
11
359.2700000
21
516.6250000
0
LINE
8
Top_Silk
6
CONTINUOUS
10
359.2700000
20
483.6050000
11
356.7300000
21
483.6050000
0
LINE
8
Top_Silk
6
CONTINUOUS
10
356.7300000
20
483.6050000
11
356.7300000
21
485.5100000
0
LINE
8
Top_Silk
6
CONTINUOUS
10
356.7300000
20
485.5100000
11
356.7300000
21
516.6250000
0
ENDBLK
0
BLOCK
2
HDR2X6_2240
8
0
70
0
10
0.0000000
20
0.0000000
0
LINE
8
Top_Silk
6
CONTINUOUS
10
338.8550000
20
483.6050000
11
354.0950000
21
483.6050000
0
LINE
8
Top_Silk
6
CONTINUOUS
10
354.0950000
20
483.6050000
11
354.0950000
21
488.6850000
0
LINE
8
Top_Silk
6
CONTINUOUS
10
338.8550000
20
488.6850000
11
354.0950000
21
488.6850000
0
LINE
8
Top_Silk
6
CONTINUOUS
10
338.8550000
20
483.6050000
11
338.8550000
21
488.6850000
0
ENDBLK
0
BLOCK
2
CON_FFC24_FCI_2VR24R_1STE1HLF_2261
8
0
70
0
10
0.0000000
20
0.0000000
0
LINE
8
Top_Silk
6
CONTINUOUS
10
353.5000000
20
520.7000000
11
335.5000000
21
520.7000000
0
LINE
8
Top_Silk
6
CONTINUOUS
10
353.2500000
20
521.8250000
11
335.7500000
21
521.8250000
0
ARC
8
Top_Silk
6
CONTINUOUS
10
337.9500100
20
515.0750000
40
0.1250000
50
180.0000000
51
148.0000000
0
LINE
8
Top_Silk
6
CONTINUOUS
10
338.1250000
20
515.7000000
11
335.5000000
21
515.7000000
0
LINE
8
Top_Silk
6
CONTINUOUS
10
353.5000000
20
515.7000000
11
350.8750000
21
515.7000000
0
LINE
8
Top_Silk
6
CONTINUOUS
10
335.5000000
20
520.7000000
11
335.5000000
21
515.7000000
0
LINE
8
Top_Silk
6
CONTINUOUS
10
353.5000000
20
520.7000000
11
353.5000000
21
515.7000000
0
ENDBLK
0
BLOCK
2
SMALL0603_2306
8
0
70
0
10
0.0000000
20
0.0000000
0
LINE
8
Top_Silk
6
CONTINUOUS
10
338.4250000
20
504.1250000
11
337.3250000
21
504.1250000
0
LINE
8
Top_Silk
6
CONTINUOUS
10
338.4250000
20
501.3750000
11
337.3250000
21
501.3750000
0
LINE
8
Top_Silk
6
CONTINUOUS
10
338.4250000
20
504.1250000
11
338.4250000
21
501.3750000
0
LINE
8
Top_Silk
6
CONTINUOUS
10
337.3250000
20
504.1250000
11
337.3250000
21
501.3750000
0
ENDBLK
0
BLOCK
2
SW_TACT_SM_TYCO_FSM_2318
8
0
70
0
10
0.0000000
20
0.0000000
0
LINE
8
Top_Silk
6
CONTINUOUS
10
302.3905000
20
531.4520000
11
308.4230000
21
531.4520000
0
LINE
8
Top_Silk
6
CONTINUOUS
10
308.4230000
20
537.4845000
11
302.3905000
21
537.4845000
0
LINE
8
Top_Silk
6
CONTINUOUS
10
308.4230000
20
531.4520000
11
308.4230000
21
537.4845000
0
LINE
8
Top_Silk
6
CONTINUOUS
10
302.3905000
20
537.4845000
11
302.3905000
21
531.4520000
0
ENDBLK
0
BLOCK
2
CON_MICROSD_HRS_DM3AT_2332
8
0
70
0
10
0.0000000
20
0.0000000
0
LINE
8
Top_Silk
6
CONTINUOUS
10
323.2500000
20
537.1250000
11
323.3000000
21
523.2750000
0
LINE
8
Top_Silk
6
CONTINUOUS
10
337.2500000
20
534.3750000
11
337.2500000
21
535.6250000
0
ENDBLK
0
BLOCK
2
SW_TACT_SM_TYCO_FSM_2353
8
0
70
0
10
0.0000000
20
0.0000000
0
LINE
8
Top_Silk
6
CONTINUOUS
10
279.3905000
20
484.8270000
11
285.4230000
21
484.8270000
0
LINE
8
Top_Silk
6
CONTINUOUS
10
285.4230000
20
490.8595000
11
279.3905000
21
490.8595000
0
LINE
8
Top_Silk
6
CONTINUOUS
10
285.4230000
20
484.8270000
11
285.4230000
21
490.8595000
0
LINE
8
Top_Silk
6
CONTINUOUS
10
279.3905000
20
490.8595000
11
279.3905000
21
484.8270000
0
ENDBLK
0
BLOCK
2
R20
8
0
70
0
10
0.0000000
20
0.0000000
0
INSERT
8
0
2
SMALL0603R_971
10
0.0000000
20
0.0000000
41
1.0000000
42
1.0000000
43
1.0000000
50
0.0000000
0
INSERT
8
0
2
0603pad66
10
287.3750000
20
490.9750000
41
1.0000000
42
1.0000000
43
1.0000000
50
270.0000000
0
INSERT
8
0
2
0603pad29
10
287.3750000
20
492.5250000
41
1.0000000
42
1.0000000
43
1.0000000
50
270.0000000
0
TEXT
8
Top_Silk
10
287.8750000
20
488.2500000
40
0.8000000
1
R20
50
90.0
7
STANDARD
71
0
72
0
0
ENDBLK
0
BLOCK
2
30
8
0
70
0
10
0.0000000
20
0.0000000
0
INSERT
8
0
2
PAD_LABEL_984
10
0.0000000
20
0.0000000
41
1.0000000
42
1.0000000
43
1.0000000
50
0.0000000
0
INSERT
8
0
2
065_0_8mm_round32
10
286.1250000
20
528.5000000
41
1.0000000
42
1.0000000
43
1.0000000
50
270.0000000
0
TEXT
8
Top_Silk
10
286.6250000
20
527.8750000
40
0.8000000
1
BS
50
0.0
7
STANDARD
71
0
72
0
0
ENDBLK
0
BLOCK
2
C9
8
0
70
0
10
0.0000000
20
0.0000000
0
INSERT
8
0
2
SMALL0805C_992
10
0.0000000
20
0.0000000
41
1.0000000
42
1.0000000
43
1.0000000
50
0.0000000
0
INSERT
8
0
2
small08051
10
288.5775000
20
538.0000000
41
1.0000000
42
1.0000000
43
1.0000000
50
180.0000000
0
INSERT
8
0
2
small080545
10
286.6090000
20
538.0000000
41
1.0000000
42
1.0000000
43
1.0000000
50
180.0000000
0
TEXT
8
Top_Silk
10
287.5000000
20
539.1250000
40
0.8000000
1
C9
50
0.0
7
STANDARD
71
0
72
0
0
ENDBLK
0
BLOCK
2
R6
8
0
70
0
10
0.0000000
20
0.0000000
0
INSERT
8
0
2
SMALL0603R_1004
10
0.0000000
20
0.0000000
41
1.0000000
42
1.0000000
43
1.0000000
50
0.0000000
0
INSERT
8
0
2
0603pad54
10
292.1500000
20
530.8750000
41
1.0000000
42
1.0000000
43
1.0000000
50
0.0000000
0
INSERT
8
0
2
0603pad1
10
290.6000000
20
530.8750000
41
1.0000000
42
1.0000000
43
1.0000000
50
0.0000000
0
TEXT
8
Top_Silk
10
292.8750000
20
530.3750000
40
0.8000000
1
R6
50
0.0
7
STANDARD
71
0
72
0
0
ENDBLK
0
BLOCK
2
C7
8
0
70
0
10
0.0000000
20
0.0000000
0
INSERT
8
0
2
SMALL0603_1019
10
0.0000000
20
0.0000000
41
1.0000000
42
1.0000000
43
1.0000000
50
0.0000000
0
INSERT
8
0
2
0603pad18
10
290.6000000
20
529.1250000
41
1.0000000
42
1.0000000
43
1.0000000
50
180.0000000
0
INSERT
8
0
2
0603pad1
10
292.1500000
20
529.1250000
41
1.0000000
42
1.0000000
43
1.0000000
50
180.0000000
0
TEXT
8
Top_Silk
10
293.8750000
20
528.5000000
40
0.8000000
1
C7
50
90.0
7
STANDARD
71
0
72
0
0
ENDBLK
0
BLOCK
2
R16
8
0
70
0
10
0.0000000
20
0.0000000
0
INSERT
8
0
2
SMALL0603R_1032
10
0.0000000
20
0.0000000
41
1.0000000
42
1.0000000
43
1.0000000
50
0.0000000
0
INSERT
8
0
2
0603pad26
10
300.5000000
20
492.4000000
41
1.0000000
42
1.0000000
43
1.0000000
50
90.0000000
0
INSERT
8
0
2
0603pad33
10
300.5000000
20
490.8500000
41
1.0000000
42
1.0000000
43
1.0000000
50
90.0000000
0
TEXT
8
Top_Silk
10
300.8750000
20
488.2500000
40
0.8000000
1
R16
50
90.0
7
STANDARD
71
0
72
0
0
ENDBLK
0
BLOCK
2
R17
8
0
70
0
10
0.0000000
20
0.0000000
0
INSERT
8
0
2
SMALL0603R_1044
10
0.0000000
20
0.0000000
41
1.0000000
42
1.0000000
43
1.0000000
50
0.0000000
0
INSERT
8
0
2
0603pad28
10
298.5000000
20
492.4000000
41
1.0000000
42
1.0000000
43
1.0000000
50
90.0000000
0
INSERT
8
0
2
0603pad58
10
298.5000000
20
490.8500000
41
1.0000000
42
1.0000000
43
1.0000000
50
90.0000000
0
TEXT
8
Top_Silk
10
299.1250000
20
488.1250000
40
0.8000000
1
R17
50
90.0
7
STANDARD
71
0
72
0
0
ENDBLK
0
BLOCK
2
R9
8
0
70
0
10
0.0000000
20
0.0000000
0
INSERT
8
0
2
SMALL0603R_1057
10
0.0000000
20
0.0000000
41
1.0000000
42
1.0000000
43
1.0000000
50
0.0000000
0
INSERT
8
0
2
0603pad51
10
300.1500000
20
529.8750000
41
1.0000000
42
1.0000000
43
1.0000000
50
0.0000000
0
INSERT
8
0
2
0603pad1
10
298.6000000
20
529.8750000
41
1.0000000
42
1.0000000
43
1.0000000
50
0.0000000
0
TEXT
8
Top_Silk
10
298.6250000
20
530.3750000
40
0.8000000
1
R9
50
0.0
7
STANDARD
71
0
72
0
0
ENDBLK
0
BLOCK
2
C10
8
0
70
0
10
0.0000000
20
0.0000000
0
INSERT
8
0
2
SMALL0805C_1073
10
0.0000000
20
0.0000000
41
1.0000000
42
1.0000000
43
1.0000000
50
0.0000000
0
INSERT
8
0
2
small08051
10
301.0775000
20
534.7500000
41
1.0000000
42
1.0000000
43
1.0000000
50
180.0000000
0
INSERT
8
0
2
small080550
10
299.1090000
20
534.7500000
41
1.0000000
42
1.0000000
43
1.0000000
50
180.0000000
0
TEXT
8
Top_Silk
10
298.5000000
20
535.7500000
40
0.8000000
1
C10
50
0.0
7
STANDARD
71
0
72
0
0
ENDBLK
0
BLOCK
2
C4
8
0
70
0
10
0.0000000
20
0.0000000
0
INSERT
8
0
2
SMALL0805C_1085
10
0.0000000
20
0.0000000
41
1.0000000
42
1.0000000
43
1.0000000
50
0.0000000
0
INSERT
8
0
2
small08051
10
301.0775000
20
538.0000000
41
1.0000000
42
1.0000000
43
1.0000000
50
180.0000000
0
INSERT
8
0
2
small080545
10
299.1090000
20
538.0000000
41
1.0000000
42
1.0000000
43
1.0000000
50
180.0000000
0
TEXT
8
Top_Silk
10
298.6250000
20
539.0000000
40
0.8000000
1
C4
50
0.0
7
STANDARD
71
0
72
0
0
ENDBLK
0
BLOCK
2
C8
8
0
70
0
10
0.0000000
20
0.0000000
0
INSERT
8
0
2
SMALL0603_1130
10
0.0000000
20
0.0000000
41
1.0000000
42
1.0000000
43
1.0000000
50
0.0000000
0
INSERT
8
0
2
0603pad18
10
315.5000000
20
528.6000000
41
1.0000000
42
1.0000000
43
1.0000000
50
270.0000000
0
INSERT
8
0
2
0603pad1
10
315.5000000
20
530.1500000
41
1.0000000
42
1.0000000
43
1.0000000
50
270.0000000
0
TEXT
8
Top_Silk
10
316.2500000
20
527.8750000
40
0.8000000
1
C8
50
0.0
7
STANDARD
71
0
72
0
0
ENDBLK
0
BLOCK
2
24
8
0
70
0
10
0.0000000
20
0.0000000
0
INSERT
8
0
2
PAD_LABEL_1174
10
0.0000000
20
0.0000000
41
1.0000000
42
1.0000000
43
1.0000000
50
0.0000000
0
INSERT
8
0
2
065_0_8mm_round18
10
322.3750000
20
524.3750000
41
1.0000000
42
1.0000000
43
1.0000000
50
270.0000000
0
TEXT
8
Top_Silk
10
322.8750000
20
522.0000000
40
0.8000000
1
2V8
50
90.0
7
STANDARD
71
0
72
0
0
ENDBLK
0
BLOCK
2
R13
8
0
70
0
10
0.0000000
20
0.0000000
0
INSERT
8
0
2
SMALL0603R_1208
10
0.0000000
20
0.0000000
41
1.0000000
42
1.0000000
43
1.0000000
50
0.0000000
0
INSERT
8
0
2
0603pad23
10
330.1000000
20
506.5000000
41
1.0000000
42
1.0000000
43
1.0000000
50
180.0000000
0
INSERT
8
0
2
0603pad1
10
331.6500000
20
506.5000000
41
1.0000000
42
1.0000000
43
1.0000000
50
180.0000000
0
TEXT
8
Top_Silk
10
332.5000000
20
506.1250000
40
0.8000000
1
R13
50
0.0
7
STANDARD
71
0
72
0
0
ENDBLK
0
BLOCK
2
C5
8
0
70
0
10
0.0000000
20
0.0000000
0
INSERT
8
0
2
SMALL0805C_1220
10
0.0000000
20
0.0000000
41
1.0000000
42
1.0000000
43
1.0000000
50
0.0000000
0
INSERT
8
0
2
small08051
10
332.2025000
20
504.6250000
41
1.0000000
42
1.0000000
43
1.0000000
50
180.0000000
0
INSERT
8
0
2
small080524
10
330.2340000
20
504.6250000
41
1.0000000
42
1.0000000
43
1.0000000
50
180.0000000
0
TEXT
8
Top_Silk
10
333.2500000
20
504.3750000
40
0.8000000
1
C5
50
0.0
7
STANDARD
71
0
72
0
0
ENDBLK
0
BLOCK
2
10
8
0
70
0
10
0.0000000
20
0.0000000
0
INSERT
8
0
2
PAD_LABEL_1232
10
0.0000000
20
0.0000000
41
1.0000000
42
1.0000000
43
1.0000000
50
0.0000000
0
INSERT
8
0
2
065_0_8mm_round26
10
331.5000000
20
508.1250000
41
1.0000000
42
1.0000000
43
1.0000000
50
270.0000000
0
TEXT
8
Top_Silk
10
328.6250000
20
507.5000000
40
0.8000000
1
DDAT
50
0.0
7
STANDARD
71
0
72
0
0
ENDBLK
0
BLOCK
2
28
8
0
70
0
10
0.0000000
20
0.0000000
0
INSERT
8
0
2
PAD_LABEL_1242
10
0.0000000
20
0.0000000
41
1.0000000
42
1.0000000
43
1.0000000
50
0.0000000
0
INSERT
8
0
2
065_0_8mm_round30
10
332.5000000
20
513.2500000
41
1.0000000
42
1.0000000
43
1.0000000
50
270.0000000
0
TEXT
8
Top_Silk
10
329.6250000
20
512.8750000
40
0.8000000
1
DRST
50
0.0
7
STANDARD
71
0
72
0
0
ENDBLK
0
BLOCK
2
17
8
0
70
0
10
0.0000000
20
0.0000000
0
INSERT
8
0
2
PAD_LABEL_1248
10
0.0000000
20
0.0000000
41
1.0000000
42
1.0000000
43
1.0000000
50
0.0000000
0
INSERT
8
0
2
065_0_8mm_round29
10
331.5000000
20
512.2500000
41
1.0000000
42
1.0000000
43
1.0000000
50
270.0000000
0
TEXT
8
Top_Silk
10
329.6250000
20
511.6250000
40
0.8000000
1
CD
50
0.0
7
STANDARD
71
0
72
0
0
ENDBLK
0
BLOCK
2
R3
8
0
70
0
10
0.0000000
20
0.0000000
0
INSERT
8
0
2
SMALL0603R_1254
10
0.0000000
20
0.0000000
41
1.0000000
42
1.0000000
43
1.0000000
50
0.0000000
0
INSERT
8
0
2
0603pad1
10
331.5250000
20
514.6250000
41
1.0000000
42
1.0000000
43
1.0000000
50
0.0000000
0
INSERT
8
0
2
0603pad31
10
329.9750000
20
514.6250000
41
1.0000000
42
1.0000000
43
1.0000000
50
0.0000000
0
TEXT
8
Top_Silk
10
332.2500000
20
514.1250000
40
0.8000000
1
R3
50
0.0
7
STANDARD
71
0
72
0
0
ENDBLK
0
BLOCK
2
C11
8
0
70
0
10
0.0000000
20
0.0000000
0
INSERT
8
0
2
SMALL0603_1266
10
0.0000000
20
0.0000000
41
1.0000000
42
1.0000000
43
1.0000000
50
0.0000000
0
INSERT
8
0
2
0603pad21
10
329.9750000
20
516.2500000
41
1.0000000
42
1.0000000
43
1.0000000
50
180.0000000
0
INSERT
8
0
2
0603pad1
10
331.5250000
20
516.2500000
41
1.0000000
42
1.0000000
43
1.0000000
50
180.0000000
0
TEXT
8
Top_Silk
10
332.2500000
20
515.7500000
40
0.8000000
1
C11
50
0.0
7
STANDARD
71
0
72
0
0
ENDBLK
0
BLOCK
2
U2
8
0
70
0
10
0.0000000
20
0.0000000
0
INSERT
8
0
2
LGA12_ACCEL_1288
10
0.0000000
20
0.0000000
41
1.0000000
42
1.0000000
43
1.0000000
50
0.0000000
0
INSERT
8
0
2
lgapin17
10
340.8750000
20
490.3750000
41
1.0000000
42
1.0000000
43
1.0000000
50
0.0000000
0
INSERT
8
0
2
lgapin18
10
340.8750000
20
490.8750000
41
1.0000000
42
1.0000000
43
1.0000000
50
0.0000000
0
INSERT
8
0
2
lgapin18
10
340.8750000
20
491.3750000
41
1.0000000
42
1.0000000
43
1.0000000
50
0.0000000
0
INSERT
8
0
2
lgapin16
10
340.8750000
20
491.8750000
41
1.0000000
42
1.0000000
43
1.0000000
50
0.0000000
0
INSERT
8
0
2
lgapin1
10
341.3750000
20
490.3750000
41
1.0000000
42
1.0000000
43
1.0000000
50
0.0000000
0
INSERT
8
0
2
lgapin53
10
341.3750000
20
491.8750000
41
1.0000000
42
1.0000000
43
1.0000000
50
0.0000000
0
INSERT
8
0
2
lgapin1
10
341.8750000
20
490.3750000
41
1.0000000
42
1.0000000
43
1.0000000
50
0.0000000
0
INSERT
8
0
2
lgapin
10
341.8750000
20
491.8750000
41
1.0000000
42
1.0000000
43
1.0000000
50
0.0000000
0
INSERT
8
0
2
lgapin1
10
342.3750000
20
490.3750000
41
1.0000000
42
1.0000000
43
1.0000000
50
0.0000000
0
INSERT
8
0
2
lgapin1
10
342.3750000
20
490.8750000
41
1.0000000
42
1.0000000
43
1.0000000
50
0.0000000
0
INSERT
8
0
2
lgapin18
10
342.3750000
20
491.3750000
41
1.0000000
42
1.0000000
43
1.0000000
50
0.0000000
0
INSERT
8
0
2
lgapin18
10
342.3750000
20
491.8750000
41
1.0000000
42
1.0000000
43
1.0000000
50
0.0000000
0
TEXT
8
Top_Silk
10
339.0000000
20
490.7500000
40
0.8000000
1
U2
50
0.0
7
STANDARD
71
0
72
0
0
ENDBLK
0
BLOCK
2
20
8
0
70
0
10
0.0000000
20
0.0000000
0
INSERT
8
0
2
PAD_LABEL_1319
10
0.0000000
20
0.0000000
41
1.0000000
42
1.0000000
43
1.0000000
50
0.0000000
0
INSERT
8
0
2
065_0_8mm_round34
10
337.5000000
20
513.3750000
41
1.0000000
42
1.0000000
43
1.0000000
50
270.0000000
0
TEXT
8
Top_Silk
10
338.1250000
20
512.8750000
40
0.8000000
1
SDCS
50
0.0
7
STANDARD
71
0
72
0
0
ENDBLK
0
BLOCK
2
R14
8
0
70
0
10
0.0000000
20
0.0000000
0
INSERT
8
0
2
SMALL0603R_1332
10
0.0000000
20
0.0000000
41
1.0000000
42
1.0000000
43
1.0000000
50
0.0000000
0
INSERT
8
0
2
0603pad55
10
347.4000000
20
491.2500000
41
1.0000000
42
1.0000000
43
1.0000000
50
0.0000000
0
INSERT
8
0
2
0603pad37
10
345.8500000
20
491.2500000
41
1.0000000
42
1.0000000
43
1.0000000
50
0.0000000
0
TEXT
8
Top_Silk
10
348.2500000
20
491.0000000
40
0.8000000
1
R14
50
0.0
7
STANDARD
71
0
72
0
0
ENDBLK
0
BLOCK
2
R18
8
0
70
0
10
0.0000000
20
0.0000000
0
INSERT
8
0
2
SMALL0603R_1344
10
0.0000000
20
0.0000000
41
1.0000000
42
1.0000000
43
1.0000000
50
0.0000000
0
INSERT
8
0
2
0603pad37
10
345.8500000
20
492.7500000
41
1.0000000
42
1.0000000
43
1.0000000
50
180.0000000
0
INSERT
8
0
2
0603pad1
10
347.4000000
20
492.7500000
41
1.0000000
42
1.0000000
43
1.0000000
50
180.0000000
0
TEXT
8
Top_Silk
10
348.2500000
20
492.2500000
40
0.8000000
1
R18
50
0.0
7
STANDARD
71
0
72
0
0
ENDBLK
0
BLOCK
2
5
8
0
70
0
10
0.0000000
20
0.0000000
0
INSERT
8
0
2
PAD_LABEL_1370
10
0.0000000
20
0.0000000
41
1.0000000
42
1.0000000
43
1.0000000
50
0.0000000
0
INSERT
8
0
2
065_0_8mm_round13
10
348.6250000
20
508.7500000
41
1.0000000
42
1.0000000
43
1.0000000
50
270.0000000
0
TEXT
8
Top_Silk
10
349.1250000
20
508.2500000
40
0.8000000
1
VS
50
0.0
7
STANDARD
71
0
72
0
0
ENDBLK
0
BLOCK
2
C1
8
0
70
0
10
0.0000000
20
0.0000000
0
INSERT
8
0
2
SMALL0603_1380
10
0.0000000
20
0.0000000
41
1.0000000
42
1.0000000
43
1.0000000
50
0.0000000
0
INSERT
8
0
2
0603pad15
10
346.1000000
20
513.3750000
41
1.0000000
42
1.0000000
43
1.0000000
50
180.0000000
0
INSERT
8
0
2
0603pad1
10
347.6500000
20
513.3750000
41
1.0000000
42
1.0000000
43
1.0000000
50
180.0000000
0
TEXT
8
Top_Silk
10
346.3750000
20
513.8750000
40
0.8000000
1
C1
50
0.0
7
STANDARD
71
0
72
0
0
ENDBLK
0
BLOCK
2
R19
8
0
70
0
10
0.0000000
20
0.0000000
0
INSERT
8
0
2
SMALL0603R_1395
10
0.0000000
20
0.0000000
41
1.0000000
42
1.0000000
43
1.0000000
50
0.0000000
0
INSERT
8
0
2
0603pad56
10
352.5000000
20
494.0250000
41
1.0000000
42
1.0000000
43
1.0000000
50
90.0000000
0
INSERT
8
0
2
0603pad45
10
352.5000000
20
492.4750000
41
1.0000000
42
1.0000000
43
1.0000000
50
90.0000000
0
TEXT
8
Top_Silk
10
351.5000000
20
490.7500000
40
0.8000000
1
R19
50
0.0
7
STANDARD
71
0
72
0
0
ENDBLK
0
BLOCK
2
6
8
0
70
0
10
0.0000000
20
0.0000000
0
INSERT
8
0
2
PAD_LABEL_1409
10
0.0000000
20
0.0000000
41
1.0000000
42
1.0000000
43
1.0000000
50
0.0000000
0
INSERT
8
0
2
065_0_8mm_round12
10
353.8750000
20
508.6250000
41
1.0000000
42
1.0000000
43
1.0000000
50
270.0000000
0
TEXT
8
Top_Silk
10
351.8750000
20
508.1250000
40
0.8000000
1
HS
50
0.0
7
STANDARD
71
0
72
0
0
ENDBLK
0
BLOCK
2
7
8
0
70
0
10
0.0000000
20
0.0000000
0
INSERT
8
0
2
PAD_LABEL_1415
10
0.0000000
20
0.0000000
41
1.0000000
42
1.0000000
43
1.0000000
50
0.0000000
0
INSERT
8
0
2
065_0_8mm_round3
10
353.7500000
20
507.2500000
41
1.0000000
42
1.0000000
43
1.0000000
50
270.0000000
0
TEXT
8
Top_Silk
10
352.0000000
20
506.7500000
40
0.8000000
1
D9
50
0.0
7
STANDARD
71
0
72
0
0
ENDBLK
0
BLOCK
2
R4
8
0
70
0
10
0.0000000
20
0.0000000
0
INSERT
8
0
2
SMALL0603R_1423
10
0.0000000
20
0.0000000
41
1.0000000
42
1.0000000
43
1.0000000
50
0.0000000
0
INSERT
8
0
2
0603pad17
10
353.3500000
20
512.2500000
41
1.0000000
42
1.0000000
43
1.0000000
50
180.0000000
0
INSERT
8
0
2
0603pad18
10
354.9000000
20
512.2500000
41
1.0000000
42
1.0000000
43
1.0000000
50
180.0000000
0
TEXT
8
Top_Silk
10
351.5000000
20
511.7500000
40
0.8000000
1
R4
50
0.0
7
STANDARD
71
0
72
0
0
ENDBLK
0
BLOCK
2
FID2
8
0
70
0
10
0.0000000
20
0.0000000
0
INSERT
8
0
2
FID_1451
10
0.0000000
20
0.0000000
41
1.0000000
42
1.0000000
43
1.0000000
50
0.0000000
0
INSERT
8
0
2
fiduc
10
374.7500000
20
538.8750000
41
1.0000000
42
1.0000000
43
1.0000000
50
0.0000000
0
ENDBLK
0
BLOCK
2
J6
8
0
70
0
10
0.0000000
20
0.0000000
0
INSERT
8
0
2
HDR1X2_1470
10
0.0000000
20
0.0000000
41
1.0000000
42
1.0000000
43
1.0000000
50
0.0000000
0
INSERT
8
0
2
P_SX59Y59D35145
10
275.7500000
20
538.5000000
41
1.0000000
42
1.0000000
43
1.0000000
50
270.0000000
0
INSERT
8
0
2
P_EX59Y59D35148
10
275.7500000
20
535.9600000
41
1.0000000
42
1.0000000
43
1.0000000
50
270.0000000
0
TEXT
8
Top_Silk
10
275.1250000
20
539.8750000
40
0.8000000
1
J6
50
0.0
7
STANDARD
71
0
72
0
0
ENDBLK
0
BLOCK
2
R7
8
0
70
0
10
0.0000000
20
0.0000000
0
INSERT
8
0
2
SMALL0603R_1481
10
0.0000000
20
0.0000000
41
1.0000000
42
1.0000000
43
1.0000000
50
0.0000000
0
INSERT
8
0
2
0603pad25
10
290.6000000
20
532.3750000
41
1.0000000
42
1.0000000
43
1.0000000
50
180.0000000
0
INSERT
8
0
2
0603pad54
10
292.1500000
20
532.3750000
41
1.0000000
42
1.0000000
43
1.0000000
50
180.0000000
0
TEXT
8
Top_Silk
10
293.0000000
20
531.7500000
40
0.8000000
1
R7
50
0.0
7
STANDARD
71
0
72
0
0
ENDBLK
0
BLOCK
2
27
8
0
70
0
10
0.0000000
20
0.0000000
0
INSERT
8
0
2
PAD_LABEL_1495
10
0.0000000
20
0.0000000
41
1.0000000
42
1.0000000
43
1.0000000
50
0.0000000
0
INSERT
8
0
2
065_0_8mm_round25
10
293.1250000
20
533.7500000
41
1.0000000
42
1.0000000
43
1.0000000
50
270.0000000
0
TEXT
8
Top_Silk
10
294.0000000
20
534.1250000
40
0.8000000
1
12V
50
90.0
7
STANDARD
71
0
72
0
0
ENDBLK
0
BLOCK
2
R2
8
0
70
0
10
0.0000000
20
0.0000000
0
INSERT
8
0
2
SMALL0603R_1501
10
0.0000000
20
0.0000000
41
1.0000000
42
1.0000000
43
1.0000000
50
0.0000000
0
INSERT
8
0
2
0603pad50
10
300.1500000
20
532.1250000
41
1.0000000
42
1.0000000
43
1.0000000
50
0.0000000
0
INSERT
8
0
2
0603pad51
10
298.6000000
20
532.1250000
41
1.0000000
42
1.0000000
43
1.0000000
50
0.0000000
0
TEXT
8
Top_Silk
10
298.6250000
20
532.6250000
40
0.8000000
1
R2
50
0.0
7
STANDARD
71
0
72
0
0
ENDBLK
0
BLOCK
2
26
8
0
70
0
10
0.0000000
20
0.0000000
0
INSERT
8
0
2
PAD_LABEL_1514
10
0.0000000
20
0.0000000
41
1.0000000
42
1.0000000
43
1.0000000
50
0.0000000
0
INSERT
8
0
2
065_0_8mm_round50
10
310.5000000
20
532.5000000
41
1.0000000
42
1.0000000
43
1.0000000
50
270.0000000
0
TEXT
8
Top_Silk
10
309.6250000
20
533.0000000
40
0.8000000
1
3V3
50
0.0
7
STANDARD
71
0
72
0
0
ENDBLK
0
BLOCK
2
R21
8
0
70
0
10
0.0000000
20
0.0000000
0
INSERT
8
0
2
SMALL0603R_1529
10
0.0000000
20
0.0000000
41
1.0000000
42
1.0000000
43
1.0000000
50
0.0000000
0
INSERT
8
0
2
0603pad67
10
313.9750000
20
526.2500000
41
1.0000000
42
1.0000000
43
1.0000000
50
180.0000000
0
INSERT
8
0
2
0603pad39
10
315.5250000
20
526.2500000
41
1.0000000
42
1.0000000
43
1.0000000
50
180.0000000
0
TEXT
8
Top_Silk
10
313.7500000
20
526.7500000
40
0.8000000
1
R21
50
0.0
7
STANDARD
71
0
72
0
0
ENDBLK
0
BLOCK
2
29
8
0
70
0
10
0.0000000
20
0.0000000
0
INSERT
8
0
2
PAD_LABEL_1559
10
0.0000000
20
0.0000000
41
1.0000000
42
1.0000000
43
1.0000000
50
0.0000000
0
INSERT
8
0
2
065_0_8mm_round20
10
329.5000000
20
518.7500000
41
1.0000000
42
1.0000000
43
1.0000000
50
270.0000000
0
TEXT
8
Top_Silk
10
330.1250000
20
518.1250000
40
0.8000000
1
CPD
50
0.0
7
STANDARD
71
0
72
0
0
ENDBLK
0
BLOCK
2
11
8
0
70
0
10
0.0000000
20
0.0000000
0
INSERT
8
0
2
PAD_LABEL_1565
10
0.0000000
20
0.0000000
41
1.0000000
42
1.0000000
43
1.0000000
50
0.0000000
0
INSERT
8
0
2
065_0_8mm_round28
10
333.6250000
20
511.3750000
41
1.0000000
42
1.0000000
43
1.0000000
50
270.0000000
0
TEXT
8
Top_Silk
10
331.1250000
20
510.5000000
40
0.8000000
1
DCS
50
0.0
7
STANDARD
71
0
72
0
0
ENDBLK
0
BLOCK
2
9
8
0
70
0
10
0.0000000
20
0.0000000
0
INSERT
8
0
2
PAD_LABEL_1571
10
0.0000000
20
0.0000000
41
1.0000000
42
1.0000000
43
1.0000000
50
0.0000000
0
INSERT
8
0
2
065_0_8mm_round27
10
331.6250000
20
509.5000000
41
1.0000000
42
1.0000000
43
1.0000000
50
270.0000000
0
TEXT
8
Top_Silk
10
328.6250000
20
508.8750000
40
0.8000000
1
DCLK
50
0.0
7
STANDARD
71
0
72
0
0
ENDBLK
0
BLOCK
2
12
8
0
70
0
10
0.0000000
20
0.0000000
0
INSERT
8
0
2
PAD_LABEL_1580
10
0.0000000
20
0.0000000
41
1.0000000
42
1.0000000
43
1.0000000
50
0.0000000
0
INSERT
8
0
2
P_EX59Y59D3511
10
334.0000000
20
503.6250000
41
1.0000000
42
1.0000000
43
1.0000000
50
270.0000000
0
TEXT
8
Top_Silk
10
333.2500000
20
501.7500000
40
0.8000000
1
0V
50
0.0
7
STANDARD
71
0
72
0
0
ENDBLK
0
BLOCK
2
C13
8
0
70
0
10
0.0000000
20
0.0000000
0
INSERT
8
0
2
SMALL0603_1586
10
0.0000000
20
0.0000000
41
1.0000000
42
1.0000000
43
1.0000000
50
0.0000000
0
INSERT
8
0
2
0603pad18
10
329.9750000
20
517.5000000
41
1.0000000
42
1.0000000
43
1.0000000
50
180.0000000
0
INSERT
8
0
2
0603pad1
10
331.5250000
20
517.5000000
41
1.0000000
42
1.0000000
43
1.0000000
50
180.0000000
0
TEXT
8
Top_Silk
10
332.2500000
20
517.0000000
40
0.8000000
1
C13
50
0.0
7
STANDARD
71
0
72
0
0
ENDBLK
0
BLOCK
2
1
8
0
70
0
10
0.0000000
20
0.0000000
0
INSERT
8
0
2
PAD_LABEL_1599
10
0.0000000
20
0.0000000
41
1.0000000
42
1.0000000
43
1.0000000
50
0.0000000
0
INSERT
8
0
2
065_0_8mm_round40
10
338.5000000
20
511.0000000
41
1.0000000
42
1.0000000
43
1.0000000
50
270.0000000
0
TEXT
8
Top_Silk
10
339.0000000
20
504.8750000
40
0.8000000
1
PMRD/SDDI
50
90.0
7
STANDARD
71
0
72
0
0
ENDBLK
0
BLOCK
2
21
8
0
70
0
10
0.0000000
20
0.0000000
0
INSERT
8
0
2
PAD_LABEL_1605
10
0.0000000
20
0.0000000
41
1.0000000
42
1.0000000
43
1.0000000
50
0.0000000
0
INSERT
8
0
2
065_0_8mm_round11
10
340.2500000
20
511.6250000
41
1.0000000
42
1.0000000
43
1.0000000
50
270.0000000
0
TEXT
8
Top_Silk
10
340.8750000
20
511.1250000
40
0.8000000
1
D4
50
0.0
7
STANDARD
71
0
72
0
0
ENDBLK
0
BLOCK
2
2
8
0
70
0
10
0.0000000
20
0.0000000
0
INSERT
8
0
2
PAD_LABEL_1615
10
0.0000000
20
0.0000000
41
1.0000000
42
1.0000000
43
1.0000000
50
0.0000000
0
INSERT
8
0
2
065_0_8mm_round7
10
346.8750000
20
510.7500000
41
1.0000000
42
1.0000000
43
1.0000000
50
270.0000000
0
TEXT
8
Top_Silk
10
344.3750000
20
509.2500000
40
0.8000000
1
PIXCLK
50
0.0
7
STANDARD
71
0
72
0
0
ENDBLK
0
BLOCK
2
C15
8
0
70
0
10
0.0000000
20
0.0000000
0
INSERT
8
0
2
SMALL0603_1621
10
0.0000000
20
0.0000000
41
1.0000000
42
1.0000000
43
1.0000000
50
0.0000000
0
INSERT
8
0
2
0603pad18
10
345.8500000
20
494.2500000
41
1.0000000
42
1.0000000
43
1.0000000
50
180.0000000
0
INSERT
8
0
2
0603pad1
10
347.4000000
20
494.2500000
41
1.0000000
42
1.0000000
43
1.0000000
50
180.0000000
0
TEXT
8
Top_Silk
10
348.2500000
20
493.7500000
40
0.8000000
1
C15
50
0.0
7
STANDARD
71
0
72
0
0
ENDBLK
0
BLOCK
2
R5
8
0
70
0
10
0.0000000
20
0.0000000
0
INSERT
8
0
2
SMALL0603R_1635
10
0.0000000
20
0.0000000
41
1.0000000
42
1.0000000
43
1.0000000
50
0.0000000
0
INSERT
8
0
2
0603pad16
10
353.3500000
20
510.7500000
41
1.0000000
42
1.0000000
43
1.0000000
50
180.0000000
0
INSERT
8
0
2
0603pad18
10
354.9000000
20
510.7500000
41
1.0000000
42
1.0000000
43
1.0000000
50
180.0000000
0
TEXT
8
Top_Silk
10
351.3750000
20
510.2500000
40
0.8000000
1
R5
50
0.0
7
STANDARD
71
0
72
0
0
ENDBLK
0
BLOCK
2
R10
8
0
70
0
10
0.0000000
20
0.0000000
0
INSERT
8
0
2
SMALL0603R_1647
10
0.0000000
20
0.0000000
41
1.0000000
42
1.0000000
43
1.0000000
50
0.0000000
0
INSERT
8
0
2
0603pad42
10
355.2500000
20
497.4000000
41
1.0000000
42
1.0000000
43
1.0000000
50
90.0000000
0
INSERT
8
0
2
0603pad43
10
355.2500000
20
495.8500000
41
1.0000000
42
1.0000000
43
1.0000000
50
90.0000000
0
TEXT
8
Top_Silk
10
355.1250000
20
498.1250000
40
0.8000000
1
R10
50
90.0
7
STANDARD
71
0
72
0
0
ENDBLK
0
BLOCK
2
C12
8
0
70
0
10
0.0000000
20
0.0000000
0
INSERT
8
0
2
SMALL0603_1659
10
0.0000000
20
0.0000000
41
1.0000000
42
1.0000000
43
1.0000000
50
0.0000000
0
INSERT
8
0
2
0603pad56
10
353.5000000
20
495.8500000
41
1.0000000
42
1.0000000
43
1.0000000
50
270.0000000
0
INSERT
8
0
2
0603pad47
10
353.5000000
20
497.4000000
41
1.0000000
42
1.0000000
43
1.0000000
50
270.0000000
0
TEXT
8
Top_Silk
10
353.7500000
20
498.1250000
40
0.8000000
1
C12
50
90.0
7
STANDARD
71
0
72
0
0
ENDBLK
0
BLOCK
2
C16
8
0
70
0
10
0.0000000
20
0.0000000
0
INSERT
8
0
2
SMALL0603_1671
10
0.0000000
20
0.0000000
41
1.0000000
42
1.0000000
43
1.0000000
50
0.0000000
0
INSERT
8
0
2
0603pad18
10
353.8750000
20
503.1500000
41
1.0000000
42
1.0000000
43
1.0000000
50
90.0000000
0
INSERT
8
0
2
0603pad1
10
353.8750000
20
501.6000000
41
1.0000000
42
1.0000000
43
1.0000000
50
90.0000000
0
TEXT
8
Top_Silk
10
354.3750000
20
503.8750000
40
0.8000000
1
C16
50
90.0
7
STANDARD
71
0
72
0
0
ENDBLK
0
BLOCK
2
B2
8
0
70
0
10
0.0000000
20
0.0000000
0
INSERT
8
0
2
REFDES_ONLY_1684
10
0.0000000
20
0.0000000
41
1.0000000
42
1.0000000
43
1.0000000
50
0.0000000
0
TEXT
8
Top_Silk
10
369.9800000
20
538.7300000
40
0.8000000
1
B2
50
0.0
7
STANDARD
71
0
72
0
0
ENDBLK
0
BLOCK
2
Q1
8
0
70
0
10
0.0000000
20
0.0000000
0
INSERT
8
0
2
SOT23_EMU_1707
10
0.0000000
20
0.0000000
41
1.0000000
42
1.0000000
43
1.0000000
50
0.0000000
0
INSERT
8
0
2
P_SX32Y32D0T55
10
355.9598000
20
493.1090000
41
1.0000000
42
1.0000000
43
1.0000000
50
270.0000000
0
INSERT
8
0
2
P_SX32Y32D0T45
10
353.7500000
20
492.0930000
41
1.0000000
42
1.0000000
43
1.0000000
50
270.0000000
0
INSERT
8
0
2
P_SX32Y32D0T56
10
353.7500000
20
494.1250000
41
1.0000000
42
1.0000000
43
1.0000000
50
270.0000000
0
TEXT
8
Top_Silk
10
353.8750000
20
490.3750000
40
0.8000000
1
Q1
50
0.0
7
STANDARD
71
0
72
0
0
ENDBLK
0
BLOCK
2
D3
8
0
70
0
10
0.0000000
20
0.0000000
0
INSERT
8
0
2
LED_5MM_1722
10
0.0000000
20
0.0000000
41
1.0000000
42
1.0000000
43
1.0000000
50
0.0000000
0
INSERT
8
0
2
065_0_8mm_round__1_63
10
355.6450000
20
524.6250000
41
1.0000000
42
1.0000000
43
1.0000000
50
270.0000000
0
INSERT
8
0
2
065_0_8mm_round__1_50
10
353.1050000
20
524.6250000
41
1.0000000
42
1.0000000
43
1.0000000
50
270.0000000
0
TEXT
8
Top_Silk
10
356.5000000
20
526.3750000
40
0.8000000
1
D3
50
0.0
7
STANDARD
71
0
72
0
0
ENDBLK
0
BLOCK
2
FID1
8
0
70
0
10
0.0000000
20
0.0000000
0
INSERT
8
0
2
FID_1731
10
0.0000000
20
0.0000000
41
1.0000000
42
1.0000000
43
1.0000000
50
0.0000000
0
INSERT
8
0
2
fiduc
10
259.0000000
20
483.0000000
41
1.0000000
42
1.0000000
43
1.0000000
50
0.0000000
0
ENDBLK
0
BLOCK
2
R8
8
0
70
0
10
0.0000000
20
0.0000000
0
INSERT
8
0
2
SMALL0603R_1738
10
0.0000000
20
0.0000000
41
1.0000000
42
1.0000000
43
1.0000000
50
0.0000000
0
INSERT
8
0
2
0603pad48
10
295.2250000
20
532.1250000
41
1.0000000
42
1.0000000
43
1.0000000
50
180.0000000
0
INSERT
8
0
2
0603pad1
10
296.7750000
20
532.1250000
41
1.0000000
42
1.0000000
43
1.0000000
50
180.0000000
0
TEXT
8
Top_Silk
10
296.2500000
20
530.5000000
40
0.8000000
1
R8
50
0.0
7
STANDARD
71
0
72
0
0
ENDBLK
0
BLOCK
2
U3
8
0
70
0
10
0.0000000
20
0.0000000
0
INSERT
8
0
2
SOT23_5_1750
10
0.0000000
20
0.0000000
41
1.0000000
42
1.0000000
43
1.0000000
50
0.0000000
0
INSERT
8
0
2
sot235pad18
10
288.6570000
20
529.5000000
41
1.0000000
42
1.0000000
43
1.0000000
50
0.0000000
0
INSERT
8
0
2
sot235pad32
10
286.6250000
20
529.5000000
41
1.0000000
42
1.0000000
43
1.0000000
50
0.0000000
0
INSERT
8
0
2
sot235pad1
10
287.6410000
20
532.0273000
41
1.0000000
42
1.0000000
43
1.0000000
50
0.0000000
0
INSERT
8
0
2
sot235pad52
10
288.6570000
20
532.0400000
41
1.0000000
42
1.0000000
43
1.0000000
50
0.0000000
0
INSERT
8
0
2
sot235pad54
10
286.6250000
20
532.0400000
41
1.0000000
42
1.0000000
43
1.0000000
50
0.0000000
0
TEXT
8
Top_Silk
10
288.5000000
20
527.8750000
40
0.8000000
1
U3
50
0.0
7
STANDARD
71
0
72
0
0
ENDBLK
0
BLOCK
2
D2
8
0
70
0
10
0.0000000
20
0.0000000
0
INSERT
8
0
2
SOT23_EMU_1765
10
0.0000000
20
0.0000000
41
1.0000000
42
1.0000000
43
1.0000000
50
0.0000000
0
INSERT
8
0
2
P_SX32Y32D0T48
10
295.6410000
20
530.7098000
41
1.0000000
42
1.0000000
43
1.0000000
50
0.0000000
0
INSERT
8
0
2
P_SX32Y32D0T47
10
296.6570000
20
528.5000000
41
1.0000000
42
1.0000000
43
1.0000000
50
0.0000000
0
INSERT
8
0
2
P_SX32Y32D0T46
10
294.6250000
20
528.5000000
41
1.0000000
42
1.0000000
43
1.0000000
50
0.0000000
0
TEXT
8
Top_Silk
10
297.1250000
20
528.0000000
40
0.8000000
1
D2
50
0.0
7
STANDARD
71
0
72
0
0
ENDBLK
0
BLOCK
2
C6
8
0
70
0
10
0.0000000
20
0.0000000
0
INSERT
8
0
2
SMALL0805C_1780
10
0.0000000
20
0.0000000
41
1.0000000
42
1.0000000
43
1.0000000
50
0.0000000
0
INSERT
8
0
2
small08051
10
290.2975000
20
538.0000000
41
1.0000000
42
1.0000000
43
1.0000000
50
0.0000000
0
INSERT
8
0
2
small080525
10
292.2660000
20
538.0000000
41
1.0000000
42
1.0000000
43
1.0000000
50
0.0000000
0
TEXT
8
Top_Silk
10
290.3750000
20
539.0000000
40
0.8000000
1
C6
50
0.0
7
STANDARD
71
0
72
0
0
ENDBLK
0
BLOCK
2
L1
8
0
70
0
10
0.0000000
20
0.0000000
0
INSERT
8
0
2
COIL_SM_3218_1794
10
0.0000000
20
0.0000000
41
1.0000000
42
1.0000000
43
1.0000000
50
0.0000000
0
INSERT
8
0
2
small1206__1_49
10
294.7250000
20
537.9000000
41
1.0000000
42
1.0000000
43
1.0000000
50
0.0000000
0
INSERT
8
0
2
small1206__1_45
10
297.3125000
20
537.9000000
41
1.0000000
42
1.0000000
43
1.0000000
50
0.0000000
0
TEXT
8
Top_Silk
10
295.6250000
20
539.3750000
40
0.8000000
1
L1
50
0.0
7
STANDARD
71
0
72
0
0
ENDBLK
0
BLOCK
2
19
8
0
70
0
10
0.0000000
20
0.0000000
0
INSERT
8
0
2
PAD_LABEL_1823
10
0.0000000
20
0.0000000
41
1.0000000
42
1.0000000
43
1.0000000
50
0.0000000
0
INSERT
8
0
2
065_0_8mm_round38
10
335.7500000
20
512.5000000
41
1.0000000
42
1.0000000
43
1.0000000
50
270.0000000
0
TEXT
8
Top_Silk
10
334.5000000
20
510.8750000
40
0.8000000
1
SDCK
50
0.0
7
STANDARD
71
0
72
0
0
ENDBLK
0
BLOCK
2
23
8
0
70
0
10
0.0000000
20
0.0000000
0
INSERT
8
0
2
PAD_LABEL_1829
10
0.0000000
20
0.0000000
41
1.0000000
42
1.0000000
43
1.0000000
50
0.0000000
0
INSERT
8
0
2
065_0_8mm_round39
10
334.2500000
20
513.3750000
41
1.0000000
42
1.0000000
43
1.0000000
50
270.0000000
0
TEXT
8
Top_Silk
10
333.8750000
20
513.7500000
40
0.8000000
1
SDDO
50
0.0
7
STANDARD
71
0
72
0
0
ENDBLK
0
BLOCK
2
R12
8
0
70
0
10
0.0000000
20
0.0000000
0
INSERT
8
0
2
SMALL0603R_1837
10
0.0000000
20
0.0000000
41
1.0000000
42
1.0000000
43
1.0000000
50
0.0000000
0
INSERT
8
0
2
0603pad18
10
330.9750000
20
520.2500000
41
1.0000000
42
1.0000000
43
1.0000000
50
180.0000000
0
INSERT
8
0
2
0603pad35
10
332.5250000
20
520.2500000
41
1.0000000
42
1.0000000
43
1.0000000
50
180.0000000
0
TEXT
8
Top_Silk
10
333.3750000
20
519.7500000
40
0.8000000
1
R12
50
0.0
7
STANDARD
71
0
72
0
0
ENDBLK
0
BLOCK
2
C17
8
0
70
0
10
0.0000000
20
0.0000000
0
INSERT
8
0
2
SMALL0603_1849
10
0.0000000
20
0.0000000
41
1.0000000
42
1.0000000
43
1.0000000
50
0.0000000
0
INSERT
8
0
2
0603pad1
10
332.5250000
20
521.6250000
41
1.0000000
42
1.0000000
43
1.0000000
50
0.0000000
0
INSERT
8
0
2
0603pad18
10
330.9750000
20
521.6250000
41
1.0000000
42
1.0000000
43
1.0000000
50
0.0000000
0
TEXT
8
Top_Silk
10
333.3750000
20
521.1250000
40
0.8000000
1
C17
50
0.0
7
STANDARD
71
0
72
0
0
ENDBLK
0
BLOCK
2
U4
8
0
70
0
10
0.0000000
20
0.0000000
0
INSERT
8
0
2
SOT23_5_1862
10
0.0000000
20
0.0000000
41
1.0000000
42
1.0000000
43
1.0000000
50
0.0000000
0
INSERT
8
0
2
sot235pad18
10
313.6570000
20
528.6250000
41
1.0000000
42
1.0000000
43
1.0000000
50
0.0000000
0
INSERT
8
0
2
sot235pad
10
311.6250000
20
528.6250000
41
1.0000000
42
1.0000000
43
1.0000000
50
0.0000000
0
INSERT
8
0
2
sot235pad1
10
312.6410000
20
531.1523000
41
1.0000000
42
1.0000000
43
1.0000000
50
0.0000000
0
INSERT
8
0
2
sot235pad50
10
313.6570000
20
531.1650000
41
1.0000000
42
1.0000000
43
1.0000000
50
0.0000000
0
INSERT
8
0
2
sot235pad50
10
311.6250000
20
531.1650000
41
1.0000000
42
1.0000000
43
1.0000000
50
0.0000000
0
TEXT
8
Top_Silk
10
309.2500000
20
530.8750000
40
0.8000000
1
U4
50
0.0
7
STANDARD
71
0
72
0
0
ENDBLK
0
BLOCK
2
C18
8
0
70
0
10
0.0000000
20
0.0000000
0
INSERT
8
0
2
SMALL0603_1878
10
0.0000000
20
0.0000000
41
1.0000000
42
1.0000000
43
1.0000000
50
0.0000000
0
INSERT
8
0
2
0603pad1
10
344.1250000
20
490.6000000
41
1.0000000
42
1.0000000
43
1.0000000
50
270.0000000
0
INSERT
8
0
2
0603pad18
10
344.1250000
20
492.1500000
41
1.0000000
42
1.0000000
43
1.0000000
50
270.0000000
0
TEXT
8
Top_Silk
10
342.8750000
20
492.8750000
40
0.8000000
1
C18
50
0.0
7
STANDARD
71
0
72
0
0
ENDBLK
0
BLOCK
2
22
8
0
70
0
10
0.0000000
20
0.0000000
0
INSERT
8
0
2
PAD_LABEL_1893
10
0.0000000
20
0.0000000
41
1.0000000
42
1.0000000
43
1.0000000
50
0.0000000
0
INSERT
8
0
2
065_0_8mm_round8
10
342.2500000
20
512.8750000
41
1.0000000
42
1.0000000
43
1.0000000
50
270.0000000
0
TEXT
8
Top_Silk
10
342.8750000
20
512.3750000
40
0.8000000
1
D2
50
0.0
7
STANDARD
71
0
72
0
0
ENDBLK
0
BLOCK
2
C3
8
0
70
0
10
0.0000000
20
0.0000000
0
INSERT
8
0
2
SMALL0805C_1899
10
0.0000000
20
0.0000000
41
1.0000000
42
1.0000000
43
1.0000000
50
0.0000000
0
INSERT
8
0
2
small08051
10
351.9225000
20
514.2500000
41
1.0000000
42
1.0000000
43
1.0000000
50
0.0000000
0
INSERT
8
0
2
small08052
10
353.8910000
20
514.2500000
41
1.0000000
42
1.0000000
43
1.0000000
50
0.0000000
0
TEXT
8
Top_Silk
10
349.5000000
20
513.6250000
40
0.8000000
1
C3
50
0.0
7
STANDARD
71
0
72
0
0
ENDBLK
0
BLOCK
2
R1
8
0
70
0
10
0.0000000
20
0.0000000
0
INSERT
8
0
2
SMALL0603R_1912
10
0.0000000
20
0.0000000
41
1.0000000
42
1.0000000
43
1.0000000
50
0.0000000
0
INSERT
8
0
2
0603pad22
10
357.2250000
20
520.3750000
41
1.0000000
42
1.0000000
43
1.0000000
50
180.0000000
0
INSERT
8
0
2
0603pad18
10
358.7750000
20
520.3750000
41
1.0000000
42
1.0000000
43
1.0000000
50
180.0000000
0
TEXT
8
Top_Silk
10
357.3750000
20
520.8750000
40
0.8000000
1
R1
50
0.0
7
STANDARD
71
0
72
0
0
ENDBLK
0
BLOCK
2
B1
8
0
70
0
10
0.0000000
20
0.0000000
0
INSERT
8
0
2
REFDES_ONLY_1927
10
0.0000000
20
0.0000000
41
1.0000000
42
1.0000000
43
1.0000000
50
0.0000000
0
TEXT
8
Top_Silk
10
258.4800000
20
538.9800000
40
0.8000000
1
B1
50
0.0
7
STANDARD
71
0
72
0
0
ENDBLK
0
BLOCK
2
L2
8
0
70
0
10
0.0000000
20
0.0000000
0
INSERT
8
0
2
COIL_SM_3218_1933
10
0.0000000
20
0.0000000
41
1.0000000
42
1.0000000
43
1.0000000
50
0.0000000
0
INSERT
8
0
2
small1206__1_45
10
287.6500000
20
536.1500000
41
1.0000000
42
1.0000000
43
1.0000000
50
270.0000000
0
INSERT
8
0
2
small1206__1_52
10
287.6500000
20
533.5625000
41
1.0000000
42
1.0000000
43
1.0000000
50
270.0000000
0
TEXT
8
Top_Silk
10
289.0000000
20
534.2500000
40
0.8000000
1
L2
50
0.0
7
STANDARD
71
0
72
0
0
ENDBLK
0
BLOCK
2
D1
8
0
70
0
10
0.0000000
20
0.0000000
0
INSERT
8
0
2
SOT23_EMU_1945
10
0.0000000
20
0.0000000
41
1.0000000
42
1.0000000
43
1.0000000
50
0.0000000
0
INSERT
8
0
2
P_SX32Y32D0T25
10
292.2098000
20
534.7340000
41
1.0000000
42
1.0000000
43
1.0000000
50
270.0000000
0
INSERT
8
0
2
P_SX32Y32D0T
10
290.0000000
20
533.7180000
41
1.0000000
42
1.0000000
43
1.0000000
50
270.0000000
0
INSERT
8
0
2
P_SX32Y32D0T52
10
290.0000000
20
535.7500000
41
1.0000000
42
1.0000000
43
1.0000000
50
270.0000000
0
TEXT
8
Top_Silk
10
292.0000000
20
535.8750000
40
0.8000000
1
D1
50
0.0
7
STANDARD
71
0
72
0
0
ENDBLK
0
BLOCK
2
S6
8
0
70
0
10
0.0000000
20
0.0000000
0
INSERT
8
0
2
SW_TACT_SM_TYCO_FSM_1960
10
0.0000000
20
0.0000000
41
1.0000000
42
1.0000000
43
1.0000000
50
0.0000000
0
INSERT
8
0
2
swpad__1_45_F
10
284.5975000
20
529.8030000
41
1.0000000
42
1.0000000
43
1.0000000
50
-90.0000000
0
INSERT
8
0
2
swpad__1_45_F
10
284.5975000
20
538.9029900
41
1.0000000
42
1.0000000
43
1.0000000
50
-90.0000000
0
INSERT
8
0
2
swpad__1_46_F
10
280.1515000
20
529.8030000
41
1.0000000
42
1.0000000
43
1.0000000
50
-90.0000000
0
INSERT
8
0
2
swpad__1_46_F
10
280.1515000
20
538.9030000
41
1.0000000
42
1.0000000
43
1.0000000
50
-90.0000000
0
TEXT
8
Top_Silk
10
281.8750000
20
529.3750000
40
0.8000000
1
S6
50
0.0
7
STANDARD
71
0
72
0
0
ENDBLK
0
BLOCK
2
U5
8
0
70
0
10
0.0000000
20
0.0000000
0
INSERT
8
0
2
SOT23_6_1974
10
0.0000000
20
0.0000000
41
1.0000000
42
1.0000000
43
1.0000000
50
0.0000000
0
INSERT
8
0
2
sot235pad45
10
297.3000000
20
535.3250000
41
1.0000000
42
1.0000000
43
1.0000000
50
90.0000000
0
INSERT
8
0
2
sot235pad50
10
297.3000000
20
534.3750000
41
1.0000000
42
1.0000000
43
1.0000000
50
90.0000000
0
INSERT
8
0
2
sot235pad49
10
294.7000000
20
535.3250000
41
1.0000000
42
1.0000000
43
1.0000000
50
90.0000000
0
INSERT
8
0
2
sot235pad1
10
294.7000000
20
534.3750000
41
1.0000000
42
1.0000000
43
1.0000000
50
90.0000000
0
INSERT
8
0
2
sot235pad51
10
297.3000000
20
533.4250000
41
1.0000000
42
1.0000000
43
1.0000000
50
90.0000000
0
INSERT
8
0
2
sot235pad48
10
294.7000000
20
533.4250000
41
1.0000000
42
1.0000000
43
1.0000000
50
90.0000000
0
TEXT
8
Top_Silk
10
295.3750000
20
535.6250000
40
0.8000000
1
U5
50
0.0
7
STANDARD
71
0
72
0
0
ENDBLK
0
BLOCK
2
J2
8
0
70
0
10
0.0000000
20
0.0000000
0
INSERT
8
0
2
CON_FFC30_0_5_XF2M_BACKLOCK_1999
10
0.0000000
20
0.0000000
41
1.0000000
42
1.0000000
43
1.0000000
50
0.0000000
0
INSERT
8
0
2
omend1
10
324.1250000
20
502.2500000
41
1.0000000
42
1.0000000
43
1.0000000
50
270.0000000
0
INSERT
8
0
2
omend1
10
324.1250000
20
519.7500000
41
1.0000000
42
1.0000000
43
1.0000000
50
270.0000000
0
INSERT
8
0
2
ompin75
10
328.0000000
20
509.2500000
41
1.0000000
42
1.0000000
43
1.0000000
50
0.0000000
0
INSERT
8
0
2
ompin1
10
328.0000000
20
508.7500000
41
1.0000000
42
1.0000000
43
1.0000000
50
0.0000000
0
INSERT
8
0
2
ompin1
10
328.0000000
20
508.2500000
41
1.0000000
42
1.0000000
43
1.0000000
50
0.0000000
0
INSERT
8
0
2
ompin1
10
328.0000000
20
507.7500000
41
1.0000000
42
1.0000000
43
1.0000000
50
0.0000000
0
INSERT
8
0
2
ompin1
10
328.0000000
20
507.2500000
41
1.0000000
42
1.0000000
43
1.0000000
50
0.0000000
0
INSERT
8
0
2
ompin1
10
328.0000000
20
506.7500000
41
1.0000000
42
1.0000000
43
1.0000000
50
0.0000000
0
INSERT
8
0
2
ompin76
10
328.0000000
20
506.2500000
41
1.0000000
42
1.0000000
43
1.0000000
50
0.0000000
0
INSERT
8
0
2
ompin23
10
328.0000000
20
505.7500000
41
1.0000000
42
1.0000000
43
1.0000000
50
0.0000000
0
INSERT
8
0
2
ompin18
10
328.0000000
20
505.2500000
41
1.0000000
42
1.0000000
43
1.0000000
50
0.0000000
0
INSERT
8
0
2
ompin24
10
328.0000000
20
504.7500000
41
1.0000000
42
1.0000000
43
1.0000000
50
0.0000000
0
INSERT
8
0
2
ompin25
10
328.0000000
20
504.2500000
41
1.0000000
42
1.0000000
43
1.0000000
50
0.0000000
0
INSERT
8
0
2
ompin77
10
328.0000000
20
503.7500000
41
1.0000000
42
1.0000000
43
1.0000000
50
0.0000000
0
INSERT
8
0
2
ompin1
10
328.0000000
20
510.7500000
41
1.0000000
42
1.0000000
43
1.0000000
50
0.0000000
0
INSERT
8
0
2
ompin27
10
328.0000000
20
510.2500000
41
1.0000000
42
1.0000000
43
1.0000000
50
0.0000000
0
INSERT
8
0
2
ompin26
10
328.0000000
20
509.7500000
41
1.0000000
42
1.0000000
43
1.0000000
50
0.0000000
0
INSERT
8
0
2
ompin18
10
328.0000000
20
516.7500000
41
1.0000000
42
1.0000000
43
1.0000000
50
0.0000000
0
INSERT
8
0
2
ompin21
10
328.0000000
20
516.2500000
41
1.0000000
42
1.0000000
43
1.0000000
50
0.0000000
0
INSERT
8
0
2
ompin78
10
328.0000000
20
515.7500000
41
1.0000000
42
1.0000000
43
1.0000000
50
0.0000000
0
INSERT
8
0
2
ompin32
10
328.0000000
20
514.7500000
41
1.0000000
42
1.0000000
43
1.0000000
50
0.0000000
0
INSERT
8
0
2
ompin31
10
328.0000000
20
514.2500000
41
1.0000000
42
1.0000000
43
1.0000000
50
0.0000000
0
INSERT
8
0
2
ompin30
10
328.0000000
20
513.7500000
41
1.0000000
42
1.0000000
43
1.0000000
50
0.0000000
0
INSERT
8
0
2
ompin29
10
328.0000000
20
513.2500000
41
1.0000000
42
1.0000000
43
1.0000000
50
0.0000000
0
INSERT
8
0
2
ompin28
10
328.0000000
20
512.7500000
41
1.0000000
42
1.0000000
43
1.0000000
50
0.0000000
0
INSERT
8
0
2
ompin1
10
328.0000000
20
512.2500000
41
1.0000000
42
1.0000000
43
1.0000000
50
0.0000000
0
INSERT
8
0
2
ompin1
10
328.0000000
20
511.7500000
41
1.0000000
42
1.0000000
43
1.0000000
50
0.0000000
0
INSERT
8
0
2
ompin20
10
328.0000000
20
515.2500000
41
1.0000000
42
1.0000000
43
1.0000000
50
0.0000000
0
INSERT
8
0
2
ompin1
10
328.0000000
20
518.2500000
41
1.0000000
42
1.0000000
43
1.0000000
50
0.0000000
0
INSERT
8
0
2
ompin79
10
328.0000000
20
517.7500000
41
1.0000000
42
1.0000000
43
1.0000000
50
0.0000000
0
INSERT
8
0
2
ompin1
10
328.0000000
20
517.2500000
41
1.0000000
42
1.0000000
43
1.0000000
50
0.0000000
0
INSERT
8
0
2
ompin1
10
328.0000000
20
511.2500000
41
1.0000000
42
1.0000000
43
1.0000000
50
0.0000000
0
TEXT
8
Top_Silk
10
326.0000000
20
519.7500000
40
0.8000000
1
J2
50
0.0
7
STANDARD
71
0
72
0
0
ENDBLK
0
BLOCK
2
R11
8
0
70
0
10
0.0000000
20
0.0000000
0
INSERT
8
0
2
SMALL0603R_2044
10
0.0000000
20
0.0000000
41
1.0000000
42
1.0000000
43
1.0000000
50
0.0000000
0
INSERT
8
0
2
0603pad46
10
310.7250000
20
526.2500000
41
1.0000000
42
1.0000000
43
1.0000000
50
180.0000000
0
INSERT
8
0
2
0603pad57
10
312.2750000
20
526.2500000
41
1.0000000
42
1.0000000
43
1.0000000
50
180.0000000
0
TEXT
8
Top_Silk
10
310.6250000
20
526.7500000
40
0.8000000
1
R11
50
0.0
7
STANDARD
71
0
72
0
0
ENDBLK
0
BLOCK
2
U6
8
0
70
0
10
0.0000000
20
0.0000000
0
INSERT
8
0
2
SO8_PICKPLACE_2056
10
0.0000000
20
0.0000000
41
1.0000000
42
1.0000000
43
1.0000000
50
0.0000000
0
INSERT
8
0
2
P_SX80Y26D0T18
10
320.0300000
20
526.2870000
41
1.0000000
42
1.0000000
43
1.0000000
50
270.0000000
0
INSERT
8
0
2
P_SX80Y26D0T18
10
321.3000000
20
526.2870000
41
1.0000000
42
1.0000000
43
1.0000000
50
270.0000000
0
INSERT
8
0
2
P_SX80Y26D0T39
10
317.4900000
20
526.2870000
41
1.0000000
42
1.0000000
43
1.0000000
50
270.0000000
0
INSERT
8
0
2
P_SX80Y26D0T38
10
318.7600000
20
526.2870000
41
1.0000000
42
1.0000000
43
1.0000000
50
270.0000000
0
INSERT
8
0
2
P_SX80Y26D0T40
10
320.0300000
20
531.8750000
41
1.0000000
42
1.0000000
43
1.0000000
50
270.0000000
0
INSERT
8
0
2
P_SX80Y26D0T28
10
321.3000000
20
531.8750000
41
1.0000000
42
1.0000000
43
1.0000000
50
270.0000000
0
INSERT
8
0
2
P_SX80Y26D0T1
10
317.4900000
20
531.8750000
41
1.0000000
42
1.0000000
43
1.0000000
50
270.0000000
0
INSERT
8
0
2
P_SX80Y26D0T1
10
318.7600000
20
531.8750000
41
1.0000000
42
1.0000000
43
1.0000000
50
270.0000000
0
TEXT
8
Top_Silk
10
319.8750000
20
533.1250000
40
0.8000000
1
U6
50
0.0
7
STANDARD
71
0
72
0
0
ENDBLK
0
BLOCK
2
C2
8
0
70
0
10
0.0000000
20
0.0000000
0
INSERT
8
0
2
SMALL0805C_2071
10
0.0000000
20
0.0000000
41
1.0000000
42
1.0000000
43
1.0000000
50
0.0000000
0
INSERT
8
0
2
small08051
10
341.0475000
20
509.8750000
41
1.0000000
42
1.0000000
43
1.0000000
50
0.0000000
0
INSERT
8
0
2
small080519
10
343.0160000
20
509.8750000
41
1.0000000
42
1.0000000
43
1.0000000
50
0.0000000
0
TEXT
8
Top_Silk
10
340.3750000
20
507.7500000
40
0.8000000
1
C2
50
0.0
7
STANDARD
71
0
72
0
0
ENDBLK
0
BLOCK
2
31
8
0
70
0
10
0.0000000
20
0.0000000
0
INSERT
8
0
2
PAD_LABEL_2083
10
0.0000000
20
0.0000000
41
1.0000000
42
1.0000000
43
1.0000000
50
0.0000000
0
INSERT
8
0
2
065_0_8mm_round47
10
351.6250000
20
496.7500000
41
1.0000000
42
1.0000000
43
1.0000000
50
270.0000000
0
TEXT
8
Top_Silk
10
350.7500000
20
495.1250000
40
0.8000000
1
PON
50
0.0
7
STANDARD
71
0
72
0
0
ENDBLK
0
BLOCK
2
L3
8
0
70
0
10
0.0000000
20
0.0000000
0
INSERT
8
0
2
COIL_SM_3218_2089
10
0.0000000
20
0.0000000
41
1.0000000
42
1.0000000
43
1.0000000
50
0.0000000
0
INSERT
8
0
2
small1206__1_2
10
356.2250000
20
518.1500000
41
1.0000000
42
1.0000000
43
1.0000000
50
0.0000000
0
INSERT
8
0
2
small1206__1_18
10
358.8125000
20
518.1500000
41
1.0000000
42
1.0000000
43
1.0000000
50
0.0000000
0
TEXT
8
Top_Silk
10
354.2500000
20
517.0000000
40
0.8000000
1
L3
50
0.0
7
STANDARD
71
0
72
0
0
ENDBLK
0
BLOCK
2
U1
8
0
70
0
10
0.0000000
20
0.0000000
0
INSERT
8
0
2
QFP44_PICKPLACE_PIC_2101
10
0.0000000
20
0.0000000
41
1.0000000
42
1.0000000
43
1.0000000
50
0.0000000
0
INSERT
8
0
2
EF20X63TOP18
10
342.9250100
20
507.2500100
41
1.0000000
42
1.0000000
43
1.0000000
50
0.0000000
0
INSERT
8
0
2
EF20X63TOP140
10
342.1249700
20
507.2500100
41
1.0000000
42
1.0000000
43
1.0000000
50
0.0000000
0
INSERT
8
0
2
EF20X63TOP130
10
340.6249900
20
505.7500300
41
1.0000000
42
1.0000000
43
1.0000000
50
90.0000000
0
INSERT
8
0
2
EF20X63TOP157
10
340.6249900
20
504.9499900
41
1.0000000
42
1.0000000
43
1.0000000
50
90.0000000
0
INSERT
8
0
2
EF20X63TOP127
10
340.6250000
20
504.1500200
41
1.0000000
42
1.0000000
43
1.0000000
50
90.0000000
0
INSERT
8
0
2
EF20X63TOP138
10
340.6250000
20
503.3500100
41
1.0000000
42
1.0000000
43
1.0000000
50
90.0000000
0
INSERT
8
0
2
EF20X63TOP111
10
344.5250000
20
507.2500100
41
1.0000000
42
1.0000000
43
1.0000000
50
0.0000000
0
INSERT
8
0
2
EF20X63TOP110
10
343.7249800
20
507.2500000
41
1.0000000
42
1.0000000
43
1.0000000
50
0.0000000
0
INSERT
8
0
2
EF20X63TOP19
10
350.1250300
20
507.2500100
41
1.0000000
42
1.0000000
43
1.0000000
50
0.0000000
0
INSERT
8
0
2
EF20X63TOP114
10
349.3249900
20
507.2500100
41
1.0000000
42
1.0000000
43
1.0000000
50
0.0000000
0
INSERT
8
0
2
EF20X63TOP113
10
348.5250200
20
507.2500000
41
1.0000000
42
1.0000000
43
1.0000000
50
0.0000000
0
INSERT
8
0
2
EF20X63TOP17
10
347.7250100
20
507.2500000
41
1.0000000
42
1.0000000
43
1.0000000
50
0.0000000
0
INSERT
8
0
2
EF20X63TOP13
10
351.6250100
20
503.3500000
41
1.0000000
42
1.0000000
43
1.0000000
50
90.0000000
0
INSERT
8
0
2
EF20X63TOP14
10
351.6250000
20
504.1500200
41
1.0000000
42
1.0000000
43
1.0000000
50
90.0000000
0
INSERT
8
0
2
EF20X63TOP15
10
351.6250100
20
504.9499900
41
1.0000000
42
1.0000000
43
1.0000000
50
90.0000000
0
INSERT
8
0
2
EF20X63TOP16
10
351.6250100
20
505.7500300
41
1.0000000
42
1.0000000
43
1.0000000
50
90.0000000
0
INSERT
8
0
2
EF20X63TOP17
10
346.9250200
20
507.2500000
41
1.0000000
42
1.0000000
43
1.0000000
50
0.0000000
0
INSERT
8
0
2
EF20X63TOP11
10
346.1250400
20
507.2500100
41
1.0000000
42
1.0000000
43
1.0000000
50
0.0000000
0
INSERT
8
0
2
EF20X63TOP122
10
340.6249900
20
500.9500300
41
1.0000000
42
1.0000000
43
1.0000000
50
90.0000000
0
INSERT
8
0
2
EF20X63TOP134
10
340.6249900
20
500.1500000
41
1.0000000
42
1.0000000
43
1.0000000
50
90.0000000
0
INSERT
8
0
2
EF20X63TOP139
10
340.6250000
20
499.3499800
41
1.0000000
42
1.0000000
43
1.0000000
50
90.0000000
0
INSERT
8
0
2
EF20X63TOP141
10
340.6249900
20
498.5500100
41
1.0000000
42
1.0000000
43
1.0000000
50
90.0000000
0
INSERT
8
0
2
EF20X63TOP142
10
340.6249900
20
497.7499700
41
1.0000000
42
1.0000000
43
1.0000000
50
90.0000000
0
INSERT
8
0
2
EF20X63TOP117
10
342.1249700
20
496.2499900
41
1.0000000
42
1.0000000
43
1.0000000
50
0.0000000
0
INSERT
8
0
2
EF20X63TOP116
10
342.9250100
20
496.2499900
41
1.0000000
42
1.0000000
43
1.0000000
50
0.0000000
0
INSERT
8
0
2
EF20X63TOP129
10
343.7249800
20
496.2500000
41
1.0000000
42
1.0000000
43
1.0000000
50
0.0000000
0
INSERT
8
0
2
EF20X63TOP128
10
344.5249900
20
496.2500000
41
1.0000000
42
1.0000000
43
1.0000000
50
0.0000000
0
INSERT
8
0
2
EF20X63TOP118
10
340.6249900
20
501.7500400
41
1.0000000
42
1.0000000
43
1.0000000
50
90.0000000
0
INSERT
8
0
2
EF20X63TOP118
10
346.1250400
20
496.2499900
41
1.0000000
42
1.0000000
43
1.0000000
50
0.0000000
0
INSERT
8
0
2
EF20X63TOP11
10
346.9250200
20
496.2500000
41
1.0000000
42
1.0000000
43
1.0000000
50
0.0000000
0
INSERT
8
0
2
EF20X63TOP165
10
347.7250000
20
496.2499900
41
1.0000000
42
1.0000000
43
1.0000000
50
0.0000000
0
INSERT
8
0
2
EF20X63TOP162
10
348.5250200
20
496.2500000
41
1.0000000
42
1.0000000
43
1.0000000
50
0.0000000
0
INSERT
8
0
2
EF20X63TOP126
10
349.3249900
20
496.2499900
41
1.0000000
42
1.0000000
43
1.0000000
50
0.0000000
0
INSERT
8
0
2
EF20X63TOP164
10
350.1250300
20
496.2499900
41
1.0000000
42
1.0000000
43
1.0000000
50
0.0000000
0
INSERT
8
0
2
EF20X63TOP147
10
351.6250100
20
497.7499700
41
1.0000000
42
1.0000000
43
1.0000000
50
90.0000000
0
INSERT
8
0
2
EF20X63TOP161
10
351.6250100
20
498.5500100
41
1.0000000
42
1.0000000
43
1.0000000
50
90.0000000
0
INSERT
8
0
2
EF20X63TOP160
10
351.6250000
20
499.3499800
41
1.0000000
42
1.0000000
43
1.0000000
50
90.0000000
0
INSERT
8
0
2
EF20X63TOP112
10
351.6250000
20
500.1499900
41
1.0000000
42
1.0000000
43
1.0000000
50
90.0000000
0
INSERT
8
0
2
EF20X63TOP159
10
351.6250100
20
500.9500300
41
1.0000000
42
1.0000000
43
1.0000000
50
90.0000000
0
INSERT
8
0
2
EF20X63TOP11
10
351.6250100
20
501.7500400
41
1.0000000
42
1.0000000
43
1.0000000
50
90.0000000
0
INSERT
8
0
2
EF20X63TOP119
10
345.3250300
20
507.2500100
41
1.0000000
42
1.0000000
43
1.0000000
50
0.0000000
0
INSERT
8
0
2
EF20X63TOP137
10
345.3250300
20
496.2499900
41
1.0000000
42
1.0000000
43
1.0000000
50
0.0000000
0
INSERT
8
0
2
EF20X63TOP11
10
340.6250000
20
502.5500200
41
1.0000000
42
1.0000000
43
1.0000000
50
90.0000000
0
INSERT
8
0
2
EF20X63TOP118
10
351.6250000
20
502.5500200
41
1.0000000
42
1.0000000
43
1.0000000
50
90.0000000
0
TEXT
8
Top_Silk
10
340.1250000
20
506.6250000
40
0.8000000
1
U1
50
0.0
7
STANDARD
71
0
72
0
0
ENDBLK
0
BLOCK
2
S5
8
0
70
0
10
0.0000000
20
0.0000000
0
INSERT
8
0
2
SW_TACT_SM_PAN_EVQPSL02K_2157
10
0.0000000
20
0.0000000
41
1.0000000
42
1.0000000
43
1.0000000
50
0.0000000
0
INSERT
8
0
2
pansw61
10
351.8250000
20
534.3750000
41
1.0000000
42
1.0000000
43
1.0000000
50
90.0000000
0
INSERT
8
0
2
pantact36
10
354.7500000
20
534.6250000
41
1.0000000
42
1.0000000
43
1.0000000
50
90.0000000
0
INSERT
8
0
2
pansw18
10
351.8250000
20
537.7750000
41
1.0000000
42
1.0000000
43
1.0000000
50
90.0000000
0
INSERT
8
0
2
pantact74
10
354.7500000
20
537.6250000
41
1.0000000
42
1.0000000
43
1.0000000
50
90.0000000
0
INSERT
8
0
2
pansw61
10
357.6250000
20
534.3750000
41
1.0000000
42
1.0000000
43
1.0000000
50
90.0000000
0
INSERT
8
0
2
pansw18
10
357.6250000
20
537.7750000
41
1.0000000
42
1.0000000
43
1.0000000
50
90.0000000
0
TEXT
8
Top_Silk
10
358.5000000
20
538.5000000
40
0.8000000
1
S5
50
0.0
7
STANDARD
71
0
72
0
0
ENDBLK
0
BLOCK
2
R15
8
0
70
0
10
0.0000000
20
0.0000000
0
INSERT
8
0
2
SMALL0603R_2173
10
0.0000000
20
0.0000000
41
1.0000000
42
1.0000000
43
1.0000000
50
0.0000000
0
INSERT
8
0
2
0603pad62
10
357.8750000
20
522.9750000
41
1.0000000
42
1.0000000
43
1.0000000
50
270.0000000
0
INSERT
8
0
2
0603pad63
10
357.8750000
20
524.5250000
41
1.0000000
42
1.0000000
43
1.0000000
50
270.0000000
0
TEXT
8
Top_Silk
10
357.0000000
20
525.1250000
40
0.8000000
1
R15
50
0.0
7
STANDARD
71
0
72
0
0
ENDBLK
0
BLOCK
2
S2
8
0
70
0
10
0.0000000
20
0.0000000
0
INSERT
8
0
2
SW_TACT_SM_TYCO_FSM_2185
10
0.0000000
20
0.0000000
41
1.0000000
42
1.0000000
43
1.0000000
50
0.0000000
0
INSERT
8
0
2
swpad__1_72_F
10
296.0975000
20
483.3030000
41
1.0000000
42
1.0000000
43
1.0000000
50
-90.0000000
0
INSERT
8
0
2
swpad__1_58_F
10
296.0975000
20
492.4029900
41
1.0000000
42
1.0000000
43
1.0000000
50
-90.0000000
0
INSERT
8
0
2
swpad__1_18_F
10
291.6515000
20
483.3030000
41
1.0000000
42
1.0000000
43
1.0000000
50
-90.0000000
0
INSERT
8
0
2
swpad__1_18_F
10
291.6515000
20
492.4030000
41
1.0000000
42
1.0000000
43
1.0000000
50
-90.0000000
0
TEXT
8
Top_Silk
10
289.2250000
20
487.1000000
40
0.8000000
1
S2
50
0.0
7
STANDARD
71
0
72
0
0
ENDBLK
0
BLOCK
2
S3
8
0
70
0
10
0.0000000
20
0.0000000
0
INSERT
8
0
2
SW_TACT_SM_TYCO_FSM_2199
10
0.0000000
20
0.0000000
41
1.0000000
42
1.0000000
43
1.0000000
50
0.0000000
0
INSERT
8
0
2
swpad__1_18_F
10
307.5975000
20
483.3030000
41
1.0000000
42
1.0000000
43
1.0000000
50
-90.0000000
0
INSERT
8
0
2
swpad__1_18_F
10
307.5975000
20
492.4029900
41
1.0000000
42
1.0000000
43
1.0000000
50
-90.0000000
0
INSERT
8
0
2
swpad__1_73_F
10
303.1515000
20
483.3030000
41
1.0000000
42
1.0000000
43
1.0000000
50
-90.0000000
0
INSERT
8
0
2
swpad__1_33_F
10
303.1515000
20
492.4030000
41
1.0000000
42
1.0000000
43
1.0000000
50
-90.0000000
0
TEXT
8
Top_Silk
10
300.8750000
20
487.1250000
40
0.8000000
1
S3
50
0.0
7
STANDARD
71
0
72
0
0
ENDBLK
0
BLOCK
2
J5
8
0
70
0
10
0.0000000
20
0.0000000
0
INSERT
8
0
2
HDR1X13_2217
10
0.0000000
20
0.0000000
41
1.0000000
42
1.0000000
43
1.0000000
50
0.0000000
0
INSERT
8
0
2
P_SX59Y59D35145
10
358.0000000
20
484.8750000
41
1.0000000
42
1.0000000
43
1.0000000
50
90.0000000
0
INSERT
8
0
2
P_EX59Y59D35141
10
358.0000000
20
507.7350000
41
1.0000000
42
1.0000000
43
1.0000000
50
90.0000000
0
INSERT
8
0
2
P_EX59Y59D3511
10
358.0000000
20
510.2750000
41
1.0000000
42
1.0000000
43
1.0000000
50
90.0000000
0
INSERT
8
0
2
P_EX59Y59D35118
10
358.0000000
20
512.8150000
41
1.0000000
42
1.0000000
43
1.0000000
50
90.0000000
0
INSERT
8
0
2
P_SX59Y59D35122
10
358.0000000
20
515.3550000
41
1.0000000
42
1.0000000
43
1.0000000
50
90.0000000
0
INSERT
8
0
2
P_EX59Y59D35144
10
358.0000000
20
487.4150000
41
1.0000000
42
1.0000000
43
1.0000000
50
90.0000000
0
INSERT
8
0
2
P_SX59Y59D3511
10
358.0000000
20
489.9550000
41
1.0000000
42
1.0000000
43
1.0000000
50
90.0000000
0
INSERT
8
0
2
P_EX59Y59D351
10
358.0000000
20
492.4950000
41
1.0000000
42
1.0000000
43
1.0000000
50
90.0000000
0
INSERT
8
0
2
P_EX59Y59D35144
10
358.0000000
20
495.0350000
41
1.0000000
42
1.0000000
43
1.0000000
50
90.0000000
0
INSERT
8
0
2
P_EX59Y59D35143
10
358.0000000
20
497.5750000
41
1.0000000
42
1.0000000
43
1.0000000
50
90.0000000
0
INSERT
8
0
2
P_EX59Y59D35141
10
358.0000000
20
500.1150000
41
1.0000000
42
1.0000000
43
1.0000000
50
90.0000000
0
INSERT
8
0
2
P_EX59Y59D351
10
358.0000000
20
502.6550000
41
1.0000000
42
1.0000000
43
1.0000000
50
90.0000000
0
INSERT
8
0
2
P_EX59Y59D35142
10
358.0000000
20
505.1950000
41
1.0000000
42
1.0000000
43
1.0000000
50
90.0000000
0
TEXT
8
Top_Silk
10
357.3750000
20
482.1250000
40
0.8000000
1
J5
50
0.0
7
STANDARD
71
0
72
0
0
ENDBLK
0
BLOCK
2
J4
8
0
70
0
10
0.0000000
20
0.0000000
0
INSERT
8
0
2
HDR2X6_2240
10
0.0000000
20
0.0000000
41
1.0000000
42
1.0000000
43
1.0000000
50
0.0000000
0
INSERT
8
0
2
P_SX59Y59D3511
10
340.1250000
20
484.8750000
41
1.0000000
42
1.0000000
43
1.0000000
50
0.0000000
0
INSERT
8
0
2
P_EX59Y59D35160
10
350.2850000
20
487.4150000
41
1.0000000
42
1.0000000
43
1.0000000
50
0.0000000
0
INSERT
8
0
2
P_EX59Y59D35145
10
352.8250000
20
484.8750000
41
1.0000000
42
1.0000000
43
1.0000000
50
0.0000000
0
INSERT
8
0
2
P_EX59Y59D35142
10
352.8250000
20
487.4150000
41
1.0000000
42
1.0000000
43
1.0000000
50
0.0000000
0
INSERT
8
0
2
P_EX59Y59D35117
10
340.1250000
20
487.4150000
41
1.0000000
42
1.0000000
43
1.0000000
50
0.0000000
0
INSERT
8
0
2
P_EX59Y59D35116
10
342.6650000
20
484.8750000
41
1.0000000
42
1.0000000
43
1.0000000
50
0.0000000
0
INSERT
8
0
2
P_EX59Y59D35118
10
342.6650000
20
487.4150000
41
1.0000000
42
1.0000000
43
1.0000000
50
0.0000000
0
INSERT
8
0
2
P_EX59Y59D35165
10
345.2050000
20
484.8750000
41
1.0000000
42
1.0000000
43
1.0000000
50
0.0000000
0
INSERT
8
0
2
P_EX59Y59D35164
10
345.2050000
20
487.4150000
41
1.0000000
42
1.0000000
43
1.0000000
50
0.0000000
0
INSERT
8
0
2
P_EX59Y59D35141
10
347.7450000
20
484.8750000
41
1.0000000
42
1.0000000
43
1.0000000
50
0.0000000
0
INSERT
8
0
2
P_EX59Y59D35159
10
347.7450000
20
487.4150000
41
1.0000000
42
1.0000000
43
1.0000000
50
0.0000000
0
INSERT
8
0
2
P_EX59Y59D35150
10
350.2850000
20
484.8750000
41
1.0000000
42
1.0000000
43
1.0000000
50
0.0000000
0
TEXT
8
Top_Silk
10
337.3750000
20
485.8750000
40
0.8000000
1
J4
50
0.0
7
STANDARD
71
0
72
0
0
ENDBLK
0
BLOCK
2
J1
8
0
70
0
10
0.0000000
20
0.0000000
0
INSERT
8
0
2
CON_FFC24_FCI_2VR24R_1STE1HLF_2261
10
0.0000000
20
0.0000000
41
1.0000000
42
1.0000000
43
1.0000000
50
0.0000000
0
INSERT
8
0
2
EF51X12TOP12
10
345.2500200
20
515.7000000
41
1.0000000
42
1.0000000
43
1.0000000
50
270.0000000
0
INSERT
8
0
2
EF51X12TOP13
10
344.7500200
20
515.7000000
41
1.0000000
42
1.0000000
43
1.0000000
50
270.0000000
0
INSERT
8
0
2
EF51X12TOP114
10
344.2500200
20
515.7000000
41
1.0000000
42
1.0000000
43
1.0000000
50
270.0000000
0
INSERT
8
0
2
EF51X12TOP14
10
343.7500200
20
515.7000000
41
1.0000000
42
1.0000000
43
1.0000000
50
270.0000000
0
INSERT
8
0
2
EF51X12TOP11
10
343.2500200
20
515.7000000
41
1.0000000
42
1.0000000
43
1.0000000
50
270.0000000
0
INSERT
8
0
2
EF51X12TOP15
10
342.7500200
20
515.7000000
41
1.0000000
42
1.0000000
43
1.0000000
50
270.0000000
0
INSERT
8
0
2
EF51X12TOP17
10
342.2500200
20
515.7000000
41
1.0000000
42
1.0000000
43
1.0000000
50
270.0000000
0
INSERT
8
0
2
EF51X12TOP16
10
341.7500300
20
515.7000000
41
1.0000000
42
1.0000000
43
1.0000000
50
270.0000000
0
INSERT
8
0
2
EF51X12TOP18
10
341.2500300
20
515.7000000
41
1.0000000
42
1.0000000
43
1.0000000
50
270.0000000
0
INSERT
8
0
2
EF51X12TOP19
10
340.7500300
20
515.7000000
41
1.0000000
42
1.0000000
43
1.0000000
50
270.0000000
0
INSERT
8
0
2
EF51X12TOP110
10
340.2500300
20
515.7000000
41
1.0000000
42
1.0000000
43
1.0000000
50
270.0000000
0
INSERT
8
0
2
EF51X12TOP111
10
339.7500300
20
515.7000000
41
1.0000000
42
1.0000000
43
1.0000000
50
270.0000000
0
INSERT
8
0
2
EF51X12TOP1
10
339.2500300
20
515.7000000
41
1.0000000
42
1.0000000
43
1.0000000
50
270.0000000
0
INSERT
8
0
2
EF51X12TOP1
10
338.7500300
20
515.7000000
41
1.0000000
42
1.0000000
43
1.0000000
50
270.0000000
0
INSERT
8
0
2
EF51X12TOP11
10
349.7500100
20
515.7000000
41
1.0000000
42
1.0000000
43
1.0000000
50
270.0000000
0
INSERT
8
0
2
EF51X12TOP117
10
349.2500100
20
515.7000000
41
1.0000000
42
1.0000000
43
1.0000000
50
270.0000000
0
INSERT
8
0
2
EF51X12TOP12
10
348.7500100
20
515.7000000
41
1.0000000
42
1.0000000
43
1.0000000
50
270.0000000
0
INSERT
8
0
2
EF51X12TOP116
10
348.2500100
20
515.7000000
41
1.0000000
42
1.0000000
43
1.0000000
50
270.0000000
0
INSERT
8
0
2
EF51X12TOP1
10
347.7500100
20
515.7000000
41
1.0000000
42
1.0000000
43
1.0000000
50
270.0000000
0
INSERT
8
0
2
EF51X12TOP113
10
347.2500100
20
515.7000000
41
1.0000000
42
1.0000000
43
1.0000000
50
270.0000000
0
INSERT
8
0
2
EF51X12TOP120
10
346.7500200
20
515.7000000
41
1.0000000
42
1.0000000
43
1.0000000
50
270.0000000
0
INSERT
8
0
2
EF51X12TOP112
10
346.2500200
20
515.7000000
41
1.0000000
42
1.0000000
43
1.0000000
50
270.0000000
0
INSERT
8
0
2
EF51X12TOP1
10
350.2500100
20
515.7000000
41
1.0000000
42
1.0000000
43
1.0000000
50
270.0000000
0
INSERT
8
0
2
ffcmir1
10
337.1000000
20
517.1000000
41
1.0000000
42
1.0000000
43
1.0000000
50
90.0000000
0
INSERT
8
0
2
EF51X12TOP115
10
345.7500200
20
515.7000000
41
1.0000000
42
1.0000000
43
1.0000000
50
270.0000000
0
INSERT
8
0
2
ffcpoly1
10
351.9000000
20
517.0500000
41
1.0000000
42
1.0000000
43
1.0000000
50
270.0000000
0
TEXT
8
Top_Silk
10
353.6250000
20
515.6250000
40
0.8000000
1
J1
50
0.0
7
STANDARD
71
0
72
0
0
ENDBLK
0
BLOCK
2
C14
8
0
70
0
10
0.0000000
20
0.0000000
0
INSERT
8
0
2
SMALL0603_2306
10
0.0000000
20
0.0000000
41
1.0000000
42
1.0000000
43
1.0000000
50
0.0000000
0
INSERT
8
0
2
0603pad18
10
337.8750000
20
501.9750000
41
1.0000000
42
1.0000000
43
1.0000000
50
270.0000000
0
INSERT
8
0
2
0603pad1
10
337.8750000
20
503.5250000
41
1.0000000
42
1.0000000
43
1.0000000
50
270.0000000
0
TEXT
8
Top_Silk
10
335.3750000
20
502.3750000
40
0.8000000
1
C14
50
0.0
7
STANDARD
71
0
72
0
0
ENDBLK
0
BLOCK
2
S4
8
0
70
0
10
0.0000000
20
0.0000000
0
INSERT
8
0
2
SW_TACT_SM_TYCO_FSM_2318
10
0.0000000
20
0.0000000
41
1.0000000
42
1.0000000
43
1.0000000
50
0.0000000
0
INSERT
8
0
2
swpad__1_18_F
10
307.5975000
20
529.9280000
41
1.0000000
42
1.0000000
43
1.0000000
50
-90.0000000
0
INSERT
8
0
2
swpad__1_70_F
10
307.5975000
20
539.0279900
41
1.0000000
42
1.0000000
43
1.0000000
50
-90.0000000
0
INSERT
8
0
2
swpad__1_67_F
10
303.1515000
20
529.9280000
41
1.0000000
42
1.0000000
43
1.0000000
50
-90.0000000
0
INSERT
8
0
2
swpad__1_69_F
10
303.1515000
20
539.0280000
41
1.0000000
42
1.0000000
43
1.0000000
50
-90.0000000
0
TEXT
8
Top_Silk
10
308.8750000
20
535.8750000
40
0.8000000
1
S4
50
0.0
7
STANDARD
71
0
72
0
0
ENDBLK
0
BLOCK
2
J3
8
0
70
0
10
0.0000000
20
0.0000000
0
INSERT
8
0
2
CON_MICROSD_HRS_DM3AT_2332
10
0.0000000
20
0.0000000
41
1.0000000
42
1.0000000
43
1.0000000
50
0.0000000
0
INSERT
8
0
2
sd1_F
10
335.1000000
20
523.3250000
41
1.0000000
42
1.0000000
43
1.0000000
50
-180.0000000
0
INSERT
8
0
2
sd140_F
10
334.0000000
20
523.3250000
41
1.0000000
42
1.0000000
43
1.0000000
50
-180.0000000
0
INSERT
8
0
2
sd11_F
10
332.9000000
20
523.3250000
41
1.0000000
42
1.0000000
43
1.0000000
50
-180.0000000
0
INSERT
8
0
2
sd138_F
10
331.8000000
20
523.3250000
41
1.0000000
42
1.0000000
43
1.0000000
50
-180.0000000
0
INSERT
8
0
2
sd118_F
10
330.7000000
20
523.3250000
41
1.0000000
42
1.0000000
43
1.0000000
50
-180.0000000
0
INSERT
8
0
2
sd134_F
10
336.0500000
20
523.3250000
41
1.0000000
42
1.0000000
43
1.0000000
50
-180.0000000
0
INSERT
8
0
2
sd41_F
10
323.5500000
20
538.4750000
41
1.0000000
42
1.0000000
43
1.0000000
50
0.0000000
0
INSERT
8
0
2
sd134_F
10
328.5000000
20
523.3250000
41
1.0000000
42
1.0000000
43
1.0000000
50
-180.0000000
0
INSERT
8
0
2
sd1_F
10
327.4000000
20
523.3250000
41
1.0000000
42
1.0000000
43
1.0000000
50
-180.0000000
0
INSERT
8
0
2
sd21_F
10
325.6250000
20
523.2500000
41
1.0000000
42
1.0000000
43
1.0000000
50
-180.0000000
0
INSERT
8
0
2
sd335_F
10
337.2500000
20
533.7500000
41
1.0000000
42
1.0000000
43
1.0000000
50
-270.0000000
0
INSERT
8
0
2
sd139_F
10
329.6000000
20
523.3250000
41
1.0000000
42
1.0000000
43
1.0000000
50
-180.0000000
0
INSERT
8
0
2
sd21_F
10
337.3750000
20
527.6250000
41
1.0000000
42
1.0000000
43
1.0000000
50
-180.0000000
0
INSERT
8
0
2
sd51_F
10
337.1250000
20
537.5000000
41
1.0000000
42
1.0000000
43
1.0000000
50
0.0000000
0
TEXT
8
Top_Silk
10
338.2500000
20
538.3750000
40
0.8000000
1
J3
50
0.0
7
STANDARD
71
0
72
0
0
ENDBLK
0
BLOCK
2
S1
8
0
70
0
10
0.0000000
20
0.0000000
0
INSERT
8
0
2
SW_TACT_SM_TYCO_FSM_2353
10
0.0000000
20
0.0000000
41
1.0000000
42
1.0000000
43
1.0000000
50
0.0000000
0
INSERT
8
0
2
swpad__1_71_F
10
284.5975000
20
483.3030000
41
1.0000000
42
1.0000000
43
1.0000000
50
-90.0000000
0
INSERT
8
0
2
swpad__1_66_F
10
284.5975000
20
492.4029900
41
1.0000000
42
1.0000000
43
1.0000000
50
-90.0000000
0
INSERT
8
0
2
swpad__1_18_F
10
280.1515000
20
483.3030000
41
1.0000000
42
1.0000000
43
1.0000000
50
-90.0000000
0
INSERT
8
0
2
swpad__1_18_F
10
280.1515000
20
492.4030000
41
1.0000000
42
1.0000000
43
1.0000000
50
-90.0000000
0
TEXT
8
Top_Silk
10
277.9000000
20
487.3000000
40
0.8000000
1
S1
50
0.0
7
STANDARD
71
0
72
0
0
ENDBLK
0
ENDSEC
0
SECTION
2
ENTITIES
0
INSERT
8
0
2
break
10
257.2500000
20
486.5000000
41
1.0000000
42
1.0000000
43
1.0000000
50
90.0000000
0
INSERT
8
0
2
break
10
257.2500000
20
485.7500000
41
1.0000000
42
1.0000000
43
1.0000000
50
90.0000000
0
INSERT
8
0
2
break
10
257.2500000
20
488.7500000
41
1.0000000
42
1.0000000
43
1.0000000
50
90.0000000
0
INSERT
8
0
2
break
10
257.2500000
20
489.5000000
41
1.0000000
42
1.0000000
43
1.0000000
50
90.0000000
0
INSERT
8
0
2
break
10
257.2500000
20
490.2500000
41
1.0000000
42
1.0000000
43
1.0000000
50
90.0000000
0
INSERT
8
0
2
break
10
257.2500000
20
532.6250000
41
1.0000000
42
1.0000000
43
1.0000000
50
90.0000000
0
INSERT
8
0
2
break
10
257.2500000
20
531.8750000
41
1.0000000
42
1.0000000
43
1.0000000
50
90.0000000
0
INSERT
8
0
2
break
10
257.2500000
20
534.1250000
41
1.0000000
42
1.0000000
43
1.0000000
50
90.0000000
0
INSERT
8
0
2
break
10
257.2500000
20
534.8750000
41
1.0000000
42
1.0000000
43
1.0000000
50
90.0000000
0
INSERT
8
0
2
break
10
257.2500000
20
535.6250000
41
1.0000000
42
1.0000000
43
1.0000000
50
90.0000000
0
INSERT
8
0
2
break
10
257.2500000
20
536.3750000
41
1.0000000
42
1.0000000
43
1.0000000
50
90.0000000
0
INSERT
8
0
2
P_EX59Y59D3511
10
265.3750000
20
484.5000000
41
1.0000000
42
1.0000000
43
1.0000000
50
0.0000000
0
INSERT
8
0
2
P_EX59Y59D3511
10
263.3750000
20
489.0000000
41
1.0000000
42
1.0000000
43
1.0000000
50
0.0000000
0
INSERT
8
0
2
P_EX59Y59D35168
10
265.3750000
20
536.5000000
41
1.0000000
42
1.0000000
43
1.0000000
50
0.0000000
0
INSERT
8
0
2
wirestrap
10
278.3750000
20
492.7500000
41
1.0000000
42
1.0000000
43
1.0000000
50
0.0000000
0
INSERT
8
0
2
wirestrap
10
278.3750000
20
529.0000000
41
1.0000000
42
1.0000000
43
1.0000000
50
0.0000000
0
INSERT
8
0
2
R20
10
0.0000000
20
0.0000000
41
1.0000000
42
1.0000000
43
1.0000000
50
0.0000000
0
INSERT
8
0
2
small1
10
287.6250000
20
531.1250000
41
1.0000000
42
1.0000000
43
1.0000000
50
0.0000000
0
INSERT
8
0
2
30
10
0.0000000
20
0.0000000
41
1.0000000
42
1.0000000
43
1.0000000
50
0.0000000
0
INSERT
8
0
2
small45
10
286.7500000
20
539.6250000
41
1.0000000
42
1.0000000
43
1.0000000
50
0.0000000
0
INSERT
8
0
2
small45
10
288.0000000
20
539.6250000
41
1.0000000
42
1.0000000
43
1.0000000
50
0.0000000
0
INSERT
8
0
2
C9
10
0.0000000
20
0.0000000
41
1.0000000
42
1.0000000
43
1.0000000
50
0.0000000
0
INSERT
8
0
2
R6
10
0.0000000
20
0.0000000
41
1.0000000
42
1.0000000
43
1.0000000
50
0.0000000
0
INSERT
8
0
2
small1
10
292.8750000
20
528.2500000
41
1.0000000
42
1.0000000
43
1.0000000
50
180.0000000
0
INSERT
8
0
2
small18
10
290.7500000
20
527.0000000
41
1.0000000
42
1.0000000
43
1.0000000
50
0.0000000
0
INSERT
8
0
2
small18
10
296.6250000
20
526.2500000
41
1.0000000
42
1.0000000
43
1.0000000
50
0.0000000
0
INSERT
8
0
2
C7
10
0.0000000
20
0.0000000
41
1.0000000
42
1.0000000
43
1.0000000
50
0.0000000
0
INSERT
8
0
2
small1
10
295.8750000
20
534.3750000
41
1.0000000
42
1.0000000
43
1.0000000
50
0.0000000
0
INSERT
8
0
2
R16
10
0.0000000
20
0.0000000
41
1.0000000
42
1.0000000
43
1.0000000
50
0.0000000
0
INSERT
8
0
2
R17
10
0.0000000
20
0.0000000
41
1.0000000
42
1.0000000
43
1.0000000
50
0.0000000
0
INSERT
8
0
2
small47
10
301.0000000
20
528.5000000
41
1.0000000
42
1.0000000
43
1.0000000
50
0.0000000
0
INSERT
8
0
2
R9
10
0.0000000
20
0.0000000
41
1.0000000
42
1.0000000
43
1.0000000
50
0.0000000
0
INSERT
8
0
2
small45
10
299.1250000
20
539.6250000
41
1.0000000
42
1.0000000
43
1.0000000
50
0.0000000
0
INSERT
8
0
2
small45
10
300.1250000
20
539.6250000
41
1.0000000
42
1.0000000
43
1.0000000
50
0.0000000
0
INSERT
8
0
2
small45
10
301.1250000
20
539.6250000
41
1.0000000
42
1.0000000
43
1.0000000
50
0.0000000
0
INSERT
8
0
2
small1
10
301.0000000
20
536.3750000
41
1.0000000
42
1.0000000
43
1.0000000
50
0.0000000
0
INSERT
8
0
2
C10
10
0.0000000
20
0.0000000
41
1.0000000
42
1.0000000
43
1.0000000
50
0.0000000
0
INSERT
8
0
2
C4
10
0.0000000
20
0.0000000
41
1.0000000
42
1.0000000
43
1.0000000
50
0.0000000
0
INSERT
8
0
2
065_0_8mm_round1
10
311.5000000
20
486.1250000
41
1.0000000
42
1.0000000
43
1.0000000
50
270.0000000
0
INSERT
8
0
2
065_0_8mm_round1
10
311.5000000
20
483.6250000
41
1.0000000
42
1.0000000
43
1.0000000
50
270.0000000
0
INSERT
8
0
2
065_0_8mm_round18
10
309.7500000
20
485.0000000
41
1.0000000
42
1.0000000
43
1.0000000
50
270.0000000
0
INSERT
8
0
2
wirestrap
10
310.0000000
20
492.7500000
41
1.0000000
42
1.0000000
43
1.0000000
50
0.0000000
0
INSERT
8
0
2
065_0_8mm_round1
10
311.5000000
20
493.8750000
41
1.0000000
42
1.0000000
43
1.0000000
50
270.0000000
0
INSERT
8
0
2
065_0_8mm_round1
10
311.5000000
20
491.3750000
41
1.0000000
42
1.0000000
43
1.0000000
50
270.0000000
0
INSERT
8
0
2
065_0_8mm_round1
10
311.5000000
20
488.7500000
41
1.0000000
42
1.0000000
43
1.0000000
50
270.0000000
0
INSERT
8
0
2
small18
10
308.3750000
20
527.1250000
41
1.0000000
42
1.0000000
43
1.0000000
50
0.0000000
0
INSERT
8
0
2
wirestrap1
10
310.0000000
20
529.0000000
41
1.0000000
42
1.0000000
43
1.0000000
50
0.0000000
0
INSERT
8
0
2
prototh
10
315.2900000
20
482.3250000
41
1.0000000
42
1.0000000
43
1.0000000
50
0.0000000
0
INSERT
8
0
2
prototh
10
317.8300000
20
482.3250000
41
1.0000000
42
1.0000000
43
1.0000000
50
0.0000000
0
INSERT
8
0
2
prototh
10
315.2900000
20
484.8650000
41
1.0000000
42
1.0000000
43
1.0000000
50
0.0000000
0
INSERT
8
0
2
prototh
10
317.8300000
20
484.8650000
41
1.0000000
42
1.0000000
43
1.0000000
50
0.0000000
0
INSERT
8
0
2
065_0_8mm_round
10
316.5400000
20
483.6250000
41
1.0000000
42
1.0000000
43
1.0000000
50
270.0000000
0
INSERT
8
0
2
065_0_8mm_round
10
316.5400000
20
486.1250000
41
1.0000000
42
1.0000000
43
1.0000000
50
270.0000000
0
INSERT
8
0
2
065_0_8mm_round
10
314.0000000
20
483.6250000
41
1.0000000
42
1.0000000
43
1.0000000
50
270.0000000
0
INSERT
8
0
2
065_0_8mm_round
10
314.0000000
20
486.1250000
41
1.0000000
42
1.0000000
43
1.0000000
50
270.0000000
0
INSERT
8
0
2
065_0_8mm_round
10
319.0800000
20
483.6250000
41
1.0000000
42
1.0000000
43
1.0000000
50
270.0000000
0
INSERT
8
0
2
065_0_8mm_round
10
319.0800000
20
486.1250000
41
1.0000000
42
1.0000000
43
1.0000000
50
270.0000000
0
INSERT
8
0
2
prototh
10
315.2900000
20
489.9450000
41
1.0000000
42
1.0000000
43
1.0000000
50
0.0000000
0
INSERT
8
0
2
prototh
10
317.8300000
20
489.9450000
41
1.0000000
42
1.0000000
43
1.0000000
50
0.0000000
0
INSERT
8
0
2
prototh
10
315.2900000
20
492.4850000
41
1.0000000
42
1.0000000
43
1.0000000
50
0.0000000
0
INSERT
8
0
2
prototh
10
317.8300000
20
492.4850000
41
1.0000000
42
1.0000000
43
1.0000000
50
0.0000000
0
INSERT
8
0
2
065_0_8mm_round
10
316.5400000
20
493.7500000
41
1.0000000
42
1.0000000
43
1.0000000
50
270.0000000
0
INSERT
8
0
2
065_0_8mm_round
10
314.0000000
20
493.7500000
41
1.0000000
42
1.0000000
43
1.0000000
50
270.0000000
0
INSERT
8
0
2
065_0_8mm_round
10
319.0800000
20
493.7500000
41
1.0000000
42
1.0000000
43
1.0000000
50
270.0000000
0
INSERT
8
0
2
065_0_8mm_round
10
316.5400000
20
496.2500000
41
1.0000000
42
1.0000000
43
1.0000000
50
270.0000000
0
INSERT
8
0
2
065_0_8mm_round
10
314.0000000
20
496.2500000
41
1.0000000
42
1.0000000
43
1.0000000
50
270.0000000
0
INSERT
8
0
2
065_0_8mm_round
10
319.0800000
20
496.2500000
41
1.0000000
42
1.0000000
43
1.0000000
50
270.0000000
0
INSERT
8
0
2
small25
10
318.3750000
20
505.7500000
41
1.0000000
42
1.0000000
43
1.0000000
50
0.0000000
0
INSERT
8
0
2
small25
10
318.3750000
20
512.8750000
41
1.0000000
42
1.0000000
43
1.0000000
50
0.0000000
0
INSERT
8
0
2
small50
10
315.5000000
20
531.3750000
41
1.0000000
42
1.0000000
43
1.0000000
50
0.0000000
0
INSERT
8
0
2
small1
10
317.5000000
20
529.2500000
41
1.0000000
42
1.0000000
43
1.0000000
50
0.0000000
0
INSERT
8
0
2
C8
10
0.0000000
20
0.0000000
41
1.0000000
42
1.0000000
43
1.0000000
50
0.0000000
0
INSERT
8
0
2
prototh
10
322.9100000
20
482.3250000
41
1.0000000
42
1.0000000
43
1.0000000
50
0.0000000
0
INSERT
8
0
2
prototh
10
325.4500000
20
482.3250000
41
1.0000000
42
1.0000000
43
1.0000000
50
0.0000000
0
INSERT
8
0
2
prototh
10
322.9100000
20
484.8650000
41
1.0000000
42
1.0000000
43
1.0000000
50
0.0000000
0
INSERT
8
0
2
prototh
10
325.4500000
20
484.8650000
41
1.0000000
42
1.0000000
43
1.0000000
50
0.0000000
0
INSERT
8
0
2
065_0_8mm_round
10
324.1600000
20
483.6250000
41
1.0000000
42
1.0000000
43
1.0000000
50
270.0000000
0
INSERT
8
0
2
065_0_8mm_round
10
324.1600000
20
486.1250000
41
1.0000000
42
1.0000000
43
1.0000000
50
270.0000000
0
INSERT
8
0
2
065_0_8mm_round
10
321.6200000
20
483.6250000
41
1.0000000
42
1.0000000
43
1.0000000
50
270.0000000
0
INSERT
8
0
2
065_0_8mm_round
10
321.6200000
20
486.1250000
41
1.0000000
42
1.0000000
43
1.0000000
50
270.0000000
0
INSERT
8
0
2
065_0_8mm_round
10
326.7000000
20
483.6250000
41
1.0000000
42
1.0000000
43
1.0000000
50
270.0000000
0
INSERT
8
0
2
065_0_8mm_round
10
326.7000000
20
486.1250000
41
1.0000000
42
1.0000000
43
1.0000000
50
270.0000000
0
INSERT
8
0
2
prototh
10
322.9100000
20
489.9450000
41
1.0000000
42
1.0000000
43
1.0000000
50
0.0000000
0
INSERT
8
0
2
prototh
10
325.4500000
20
489.9450000
41
1.0000000
42
1.0000000
43
1.0000000
50
0.0000000
0
INSERT
8
0
2
prototh
10
322.9100000
20
492.4850000
41
1.0000000
42
1.0000000
43
1.0000000
50
0.0000000
0
INSERT
8
0
2
prototh
10
325.4500000
20
492.4850000
41
1.0000000
42
1.0000000
43
1.0000000
50
0.0000000
0
INSERT
8
0
2
065_0_8mm_round
10
324.1600000
20
493.7500000
41
1.0000000
42
1.0000000
43
1.0000000
50
270.0000000
0
INSERT
8
0
2
065_0_8mm_round
10
321.6200000
20
493.7500000
41
1.0000000
42
1.0000000
43
1.0000000
50
270.0000000
0
INSERT
8
0
2
065_0_8mm_round
10
326.7000000
20
493.7500000
41
1.0000000
42
1.0000000
43
1.0000000
50
270.0000000
0
INSERT
8
0
2
065_0_8mm_round
10
324.1600000
20
496.2500000
41
1.0000000
42
1.0000000
43
1.0000000
50
270.0000000
0
INSERT
8
0
2
065_0_8mm_round
10
321.6200000
20
496.2500000
41
1.0000000
42
1.0000000
43
1.0000000
50
270.0000000
0
INSERT
8
0
2
P_EX59Y59D3511
10
322.8250000
20
497.5650000
41
1.0000000
42
1.0000000
43
1.0000000
50
0.0000000
0
INSERT
8
0
2
065_0_8mm_round
10
326.7000000
20
496.2500000
41
1.0000000
42
1.0000000
43
1.0000000
50
270.0000000
0
INSERT
8
0
2
P_EX59Y59D35118
10
325.4050000
20
497.5650000
41
1.0000000
42
1.0000000
43
1.0000000
50
0.0000000
0
INSERT
8
0
2
small57
10
320.6250000
20
509.5000000
41
1.0000000
42
1.0000000
43
1.0000000
50
0.0000000
0
INSERT
8
0
2
small18
10
324.0000000
20
506.1250000
41
1.0000000
42
1.0000000
43
1.0000000
50
0.0000000
0
INSERT
8
0
2
small1
10
325.3750000
20
503.5000000
41
1.0000000
42
1.0000000
43
1.0000000
50
0.0000000
0
INSERT
8
0
2
small1
10
324.0000000
20
503.7500000
41
1.0000000
42
1.0000000
43
1.0000000
50
0.0000000
0
INSERT
8
0
2
small28
10
321.8750000
20
512.1250000
41
1.0000000
42
1.0000000
43
1.0000000
50
0.0000000
0
INSERT
8
0
2
small57
10
320.6250000
20
515.2500000
41
1.0000000
42
1.0000000
43
1.0000000
50
0.0000000
0
INSERT
8
0
2
small28
10
321.8750000
20
515.2500000
41
1.0000000
42
1.0000000
43
1.0000000
50
0.0000000
0
INSERT
8
0
2
small18
10
324.0000000
20
515.1250000
41
1.0000000
42
1.0000000
43
1.0000000
50
0.0000000
0
INSERT
8
0
2
small1
10
325.6250000
20
524.7500000
41
1.0000000
42
1.0000000
43
1.0000000
50
0.0000000
0
INSERT
8
0
2
small39
10
323.1250000
20
522.7500000
41
1.0000000
42
1.0000000
43
1.0000000
50
0.0000000
0
INSERT
8
0
2
24
10
0.0000000
20
0.0000000
41
1.0000000
42
1.0000000
43
1.0000000
50
0.0000000
0
INSERT
8
0
2
small1
10
322.7500000
20
520.7500000
41
1.0000000
42
1.0000000
43
1.0000000
50
0.0000000
0
INSERT
8
0
2
small47
10
323.3750000
20
530.1250000
41
1.0000000
42
1.0000000
43
1.0000000
50
0.0000000
0
INSERT
8
0
2
small50
10
325.1250000
20
530.2500000
41
1.0000000
42
1.0000000
43
1.0000000
50
0.0000000
0
INSERT
8
0
2
small18
10
322.3750000
20
526.2500000
41
1.0000000
42
1.0000000
43
1.0000000
50
0.0000000
0
INSERT
8
0
2
prototh
10
330.5300000
20
482.3250000
41
1.0000000
42
1.0000000
43
1.0000000
50
0.0000000
0
INSERT
8
0
2
prototh
10
333.0700000
20
482.3250000
41
1.0000000
42
1.0000000
43
1.0000000
50
0.0000000
0
INSERT
8
0
2
prototh
10
330.5300000
20
484.8650000
41
1.0000000
42
1.0000000
43
1.0000000
50
0.0000000
0
INSERT
8
0
2
prototh
10
333.0700000
20
484.8650000
41
1.0000000
42
1.0000000
43
1.0000000
50
0.0000000
0
INSERT
8
0
2
065_0_8mm_round
10
331.7800000
20
483.6250000
41
1.0000000
42
1.0000000
43
1.0000000
50
270.0000000
0
INSERT
8
0
2
065_0_8mm_round
10
331.7800000
20
486.1250000
41
1.0000000
42
1.0000000
43
1.0000000
50
270.0000000
0
INSERT
8
0
2
065_0_8mm_round
10
329.2400000
20
483.6250000
41
1.0000000
42
1.0000000
43
1.0000000
50
270.0000000
0
INSERT
8
0
2
065_0_8mm_round
10
329.2400000
20
486.1250000
41
1.0000000
42
1.0000000
43
1.0000000
50
270.0000000
0
INSERT
8
0
2
065_0_8mm_round
10
334.3200000
20
483.6250000
41
1.0000000
42
1.0000000
43
1.0000000
50
270.0000000
0
INSERT
8
0
2
065_0_8mm_round
10
334.3200000
20
486.1250000
41
1.0000000
42
1.0000000
43
1.0000000
50
270.0000000
0
INSERT
8
0
2
prototh
10
330.5300000
20
489.9450000
41
1.0000000
42
1.0000000
43
1.0000000
50
0.0000000
0
INSERT
8
0
2
prototh
10
333.0700000
20
489.9450000
41
1.0000000
42
1.0000000
43
1.0000000
50
0.0000000
0
INSERT
8
0
2
prototh
10
330.5300000
20
492.4850000
41
1.0000000
42
1.0000000
43
1.0000000
50
0.0000000
0
INSERT
8
0
2
prototh
10
333.0700000
20
492.4850000
41
1.0000000
42
1.0000000
43
1.0000000
50
0.0000000
0
INSERT
8
0
2
065_0_8mm_round
10
331.7800000
20
493.7500000
41
1.0000000
42
1.0000000
43
1.0000000
50
270.0000000
0
INSERT
8
0
2
065_0_8mm_round
10
329.2400000
20
493.7500000
41
1.0000000
42
1.0000000
43
1.0000000
50
270.0000000
0
INSERT
8
0
2
065_0_8mm_round
10
334.3200000
20
493.7500000
41
1.0000000
42
1.0000000
43
1.0000000
50
270.0000000
0
INSERT
8
0
2
small18
10
329.8750000
20
502.1250000
41
1.0000000
42
1.0000000
43
1.0000000
50
0.0000000
0
INSERT
8
0
2
065_0_8mm_round
10
331.7800000
20
496.2500000
41
1.0000000
42
1.0000000
43
1.0000000
50
270.0000000
0
INSERT
8
0
2
065_0_8mm_round
10
329.2400000
20
496.2500000
41
1.0000000
42
1.0000000
43
1.0000000
50
270.0000000
0
INSERT
8
0
2
065_0_8mm_round
10
334.3200000
20
496.2500000
41
1.0000000
42
1.0000000
43
1.0000000
50
270.0000000
0
INSERT
8
0
2
P_EX59Y59D35116
10
330.4850000
20
497.5650000
41
1.0000000
42
1.0000000
43
1.0000000
50
0.0000000
0
INSERT
8
0
2
P_EX59Y59D35150
10
333.1250000
20
497.5000000
41
1.0000000
42
1.0000000
43
1.0000000
50
0.0000000
0
INSERT
8
0
2
small1
10
329.3750000
20
507.7500000
41
1.0000000
42
1.0000000
43
1.0000000
50
0.0000000
0
INSERT
8
0
2
R13
10
0.0000000
20
0.0000000
41
1.0000000
42
1.0000000
43
1.0000000
50
0.0000000
0
INSERT
8
0
2
C5
10
0.0000000
20
0.0000000
41
1.0000000
42
1.0000000
43
1.0000000
50
0.0000000
0
INSERT
8
0
2
10
10
0.0000000
20
0.0000000
41
1.0000000
42
1.0000000
43
1.0000000
50
0.0000000
0
INSERT
8
0
2
small29
10
333.3750000
20
507.7500000
41
1.0000000
42
1.0000000
43
1.0000000
50
0.0000000
0
INSERT
8
0
2
small28
10
334.2500000
20
508.5000000
41
1.0000000
42
1.0000000
43
1.0000000
50
0.0000000
0
INSERT
8
0
2
small1
10
332.5000000
20
516.2500000
41
1.0000000
42
1.0000000
43
1.0000000
50
0.0000000
0
INSERT
8
0
2
small1
10
329.5000000
20
511.2500000
41
1.0000000
42
1.0000000
43
1.0000000
50
0.0000000
0
INSERT
8
0
2
28
10
0.0000000
20
0.0000000
41
1.0000000
42
1.0000000
43
1.0000000
50
0.0000000
0
INSERT
8
0
2
17
10
0.0000000
20
0.0000000
41
1.0000000
42
1.0000000
43
1.0000000
50
0.0000000
0
INSERT
8
0
2
R3
10
0.0000000
20
0.0000000
41
1.0000000
42
1.0000000
43
1.0000000
50
0.0000000
0
INSERT
8
0
2
C11
10
0.0000000
20
0.0000000
41
1.0000000
42
1.0000000
43
1.0000000
50
0.0000000
0
INSERT
8
0
2
small1
10
332.8750000
20
524.5000000
41
1.0000000
42
1.0000000
43
1.0000000
50
0.0000000
0
INSERT
8
0
2
small35
10
333.7500000
20
520.2500000
41
1.0000000
42
1.0000000
43
1.0000000
50
0.0000000
0
INSERT
8
0
2
small34
10
328.5000000
20
525.2500000
41
1.0000000
42
1.0000000
43
1.0000000
50
0.0000000
0
INSERT
8
0
2
small39
10
329.6250000
20
521.8750000
41
1.0000000
42
1.0000000
43
1.0000000
50
0.0000000
0
INSERT
8
0
2
small1
10
333.7500000
20
530.6250000
41
1.0000000
42
1.0000000
43
1.0000000
50
0.0000000
0
INSERT
8
0
2
small1
10
332.5000000
20
530.6250000
41
1.0000000
42
1.0000000
43
1.0000000
50
0.0000000
0
INSERT
8
0
2
small17
10
340.1250000
20
489.6250000
41
1.0000000
42
1.0000000
43
1.0000000
50
0.0000000
0
INSERT
8
0
2
small16
10
342.3750000
20
493.2500000
41
1.0000000
42
1.0000000
43
1.0000000
50
0.0000000
0
INSERT
8
0
2
small16
10
340.5000000
20
493.8750000
41
1.0000000
42
1.0000000
43
1.0000000
50
0.0000000
0
INSERT
8
0
2
small17
10
339.6250000
20
492.8750000
41
1.0000000
42
1.0000000
43
1.0000000
50
0.0000000
0
INSERT
8
0
2
U2
10
0.0000000
20
0.0000000
41
1.0000000
42
1.0000000
43
1.0000000
50
0.0000000
0
INSERT
8
0
2
small28
10
341.0000000
20
496.7500000
41
1.0000000
42
1.0000000
43
1.0000000
50
0.0000000
0
INSERT
8
0
2
small18
10
339.0000000
20
501.7500000
41
1.0000000
42
1.0000000
43
1.0000000
50
0.0000000
0
INSERT
8
0
2
small26
10
338.5000000
20
499.3750000
41
1.0000000
42
1.0000000
43
1.0000000
50
0.0000000
0
INSERT
8
0
2
small34
10
336.8750000
20
507.5000000
41
1.0000000
42
1.0000000
43
1.0000000
50
0.0000000
0
INSERT
8
0
2
small1
10
340.0000000
20
509.8750000
41
1.0000000
42
1.0000000
43
1.0000000
50
0.0000000
0
INSERT
8
0
2
small38
10
336.0000000
20
508.7500000
41
1.0000000
42
1.0000000
43
1.0000000
50
0.0000000
0
INSERT
8
0
2
small39
10
335.7500000
20
507.5000000
41
1.0000000
42
1.0000000
43
1.0000000
50
0.0000000
0
INSERT
8
0
2
small1
10
338.8750000
20
517.3750000
41
1.0000000
42
1.0000000
43
1.0000000
50
0.0000000
0
INSERT
8
0
2
20
10
0.0000000
20
0.0000000
41
1.0000000
42
1.0000000
43
1.0000000
50
0.0000000
0
INSERT
8
0
2
small20
10
335.7500000
20
518.7500000
41
1.0000000
42
1.0000000
43
1.0000000
50
0.0000000
0
INSERT
8
0
2
small35
10
336.0000000
20
528.2500000
41
1.0000000
42
1.0000000
43
1.0000000
50
0.0000000
0
INSERT
8
0
2
wirestrap1
10
338.7500000
20
531.8750000
41
1.0000000
42
1.0000000
43
1.0000000
50
0.0000000
0
INSERT
8
0
2
small55
10
348.5000000
20
491.2500000
41
1.0000000
42
1.0000000
43
1.0000000
50
0.0000000
0
INSERT
8
0
2
small28
10
344.1250000
20
493.5000000
41
1.0000000
42
1.0000000
43
1.0000000
50
0.0000000
0
INSERT
8
0
2
small26
10
349.2500000
20
493.6250000
41
1.0000000
42
1.0000000
43
1.0000000
50
0.0000000
0
INSERT
8
0
2
small29
10
343.3750000
20
494.5000000
41
1.0000000
42
1.0000000
43
1.0000000
50
0.0000000
0
INSERT
8
0
2
R14
10
0.0000000
20
0.0000000
41
1.0000000
42
1.0000000
43
1.0000000
50
0.0000000
0
INSERT
8
0
2
R18
10
0.0000000
20
0.0000000
41
1.0000000
42
1.0000000
43
1.0000000
50
0.0000000
0
INSERT
8
0
2
small59
10
349.8750000
20
498.0000000
41
1.0000000
42
1.0000000
43
1.0000000
50
0.0000000
0
INSERT
8
0
2
small22
10
348.1250000
20
501.2500000
41
1.0000000
42
1.0000000
43
1.0000000
50
0.0000000
0
INSERT
8
0
2
small42
10
348.2500000
20
499.5000000
41
1.0000000
42
1.0000000
43
1.0000000
50
0.0000000
0
INSERT
8
0
2
small41
10
347.2500000
20
500.3750000
41
1.0000000
42
1.0000000
43
1.0000000
50
0.0000000
0
INSERT
8
0
2
small1
10
347.1250000
20
497.6250000
41
1.0000000
42
1.0000000
43
1.0000000
50
0.0000000
0
INSERT
8
0
2
small17
10
343.7500000
20
498.7500000
41
1.0000000
42
1.0000000
43
1.0000000
50
0.0000000
0
INSERT
8
0
2
small16
10
345.2500000
20
498.5000000
41
1.0000000
42
1.0000000
43
1.0000000
50
0.0000000
0
INSERT
8
0
2
small62
10
348.5000000
20
497.7500000
41
1.0000000
42
1.0000000
43
1.0000000
50
0.0000000
0
INSERT
8
0
2
small14
10
346.8750000
20
505.6250000
41
1.0000000
42
1.0000000
43
1.0000000
50
0.0000000
0
INSERT
8
0
2
small8
10
343.5000000
20
505.6250000
41
1.0000000
42
1.0000000
43
1.0000000
50
0.0000000
0
INSERT
8
0
2
small1
10
345.3750000
20
505.5000000
41
1.0000000
42
1.0000000
43
1.0000000
50
0.0000000
0
INSERT
8
0
2
small7
10
347.0000000
20
508.5000000
41
1.0000000
42
1.0000000
43
1.0000000
50
0.0000000
0
INSERT
8
0
2
small17
10
348.8750000
20
505.0000000
41
1.0000000
42
1.0000000
43
1.0000000
50
0.0000000
0
INSERT
8
0
2
small16
10
349.8750000
20
504.5000000
41
1.0000000
42
1.0000000
43
1.0000000
50
0.0000000
0
INSERT
8
0
2
5
10
0.0000000
20
0.0000000
41
1.0000000
42
1.0000000
43
1.0000000
50
0.0000000
0
INSERT
8
0
2
small1
10
349.7500000
20
517.2500000
41
1.0000000
42
1.0000000
43
1.0000000
50
0.0000000
0
INSERT
8
0
2
small1
10
348.7500000
20
512.5000000
41
1.0000000
42
1.0000000
43
1.0000000
50
0.0000000
0
INSERT
8
0
2
small13
10
347.7500000
20
517.3750000
41
1.0000000
42
1.0000000
43
1.0000000
50
0.0000000
0
INSERT
8
0
2
small14
10
344.2500000
20
517.2500000
41
1.0000000
42
1.0000000
43
1.0000000
50
0.0000000
0
INSERT
8
0
2
C1
10
0.0000000
20
0.0000000
41
1.0000000
42
1.0000000
43
1.0000000
50
0.0000000
0
INSERT
8
0
2
small20
10
346.7500000
20
519.1250000
41
1.0000000
42
1.0000000
43
1.0000000
50
0.0000000
0
INSERT
8
0
2
small20
10
344.2500000
20
519.1250000
41
1.0000000
42
1.0000000
43
1.0000000
50
0.0000000
0
INSERT
8
0
2
small55
10
355.7500000
20
491.2500000
41
1.0000000
42
1.0000000
43
1.0000000
50
0.0000000
0
INSERT
8
0
2
R19
10
0.0000000
20
0.0000000
41
1.0000000
42
1.0000000
43
1.0000000
50
0.0000000
0
INSERT
8
0
2
small60
10
353.6250000
20
499.3750000
41
1.0000000
42
1.0000000
43
1.0000000
50
0.0000000
0
INSERT
8
0
2
small18
10
354.8750000
20
509.5000000
41
1.0000000
42
1.0000000
43
1.0000000
50
0.0000000
0
INSERT
8
0
2
6
10
0.0000000
20
0.0000000
41
1.0000000
42
1.0000000
43
1.0000000
50
0.0000000
0
INSERT
8
0
2
7
10
0.0000000
20
0.0000000
41
1.0000000
42
1.0000000
43
1.0000000
50
0.0000000
0
INSERT
8
0
2
small17
10
351.2500000
20
512.5000000
41
1.0000000
42
1.0000000
43
1.0000000
50
0.0000000
0
INSERT
8
0
2
small16
10
352.1250000
20
511.5000000
41
1.0000000
42
1.0000000
43
1.0000000
50
0.0000000
0
INSERT
8
0
2
R4
10
0.0000000
20
0.0000000
41
1.0000000
42
1.0000000
43
1.0000000
50
0.0000000
0
INSERT
8
0
2
small47
10
353.3750000
20
522.0000000
41
1.0000000
42
1.0000000
43
1.0000000
50
0.0000000
0
INSERT
8
0
2
small47
10
355.7500000
20
522.0000000
41
1.0000000
42
1.0000000
43
1.0000000
50
0.0000000
0
INSERT
8
0
2
small50
10
360.8750000
20
486.8750000
41
1.0000000
42
1.0000000
43
1.0000000
50
0.0000000
0
INSERT
8
0
2
small62
10
360.7500000
20
504.5000000
41
1.0000000
42
1.0000000
43
1.0000000
50
0.0000000
0
INSERT
8
0
2
small18
10
361.8750000
20
524.8750000
41
1.0000000
42
1.0000000
43
1.0000000
50
0.0000000
0
INSERT
8
0
2
small50
10
359.1250000
20
523.8750000
41
1.0000000
42
1.0000000
43
1.0000000
50
0.0000000
0
INSERT
8
0
2
P_EX59Y59D35168
10
368.3750000
20
484.5000000
41
1.0000000
42
1.0000000
43
1.0000000
50
0.0000000
0
INSERT
8
0
2
P_EX59Y59D35168
10
370.3750000
20
489.0000000
41
1.0000000
42
1.0000000
43
1.0000000
50
0.0000000
0
INSERT
8
0
2
P_EX59Y59D35145
10
368.3750000
20
536.5000000
41
1.0000000
42
1.0000000
43
1.0000000
50
0.0000000
0
INSERT
8
0
2
break_F
10
376.7500000
20
486.5000000
41
1.0000000
42
1.0000000
43
1.0000000
50
-90.0000000
0
INSERT
8
0
2
break_F
10
376.7500000
20
485.7500000
41
1.0000000
42
1.0000000
43
1.0000000
50
-90.0000000
0
INSERT
8
0
2
break_F
10
376.7500000
20
488.7500000
41
1.0000000
42
1.0000000
43
1.0000000
50
-90.0000000
0
INSERT
8
0
2
break_F
10
376.7500000
20
489.5000000
41
1.0000000
42
1.0000000
43
1.0000000
50
-90.0000000
0
INSERT
8
0
2
break_F
10
376.7500000
20
490.2500000
41
1.0000000
42
1.0000000
43
1.0000000
50
-90.0000000
0
INSERT
8
0
2
break_F
10
376.7500000
20
532.6250000
41
1.0000000
42
1.0000000
43
1.0000000
50
-90.0000000
0
INSERT
8
0
2
break_F
10
376.7500000
20
531.8750000
41
1.0000000
42
1.0000000
43
1.0000000
50
-90.0000000
0
INSERT
8
0
2
FID2
10
0.0000000
20
0.0000000
41
1.0000000
42
1.0000000
43
1.0000000
50
0.0000000
0
INSERT
8
0
2
break_F
10
376.7500000
20
534.1250000
41
1.0000000
42
1.0000000
43
1.0000000
50
-90.0000000
0
INSERT
8
0
2
break_F
10
376.7500000
20
534.8750000
41
1.0000000
42
1.0000000
43
1.0000000
50
-90.0000000
0
INSERT
8
0
2
break_F
10
376.7500000
20
535.6250000
41
1.0000000
42
1.0000000
43
1.0000000
50
-90.0000000
0
INSERT
8
0
2
break_F
10
376.7500000
20
536.3750000
41
1.0000000
42
1.0000000
43
1.0000000
50
-90.0000000
0
INSERT
8
0
2
break
10
257.2500000
20
488.0000000
41
1.0000000
42
1.0000000
43
1.0000000
50
90.0000000
0
INSERT
8
0
2
break
10
257.2500000
20
487.2500000
41
1.0000000
42
1.0000000
43
1.0000000
50
90.0000000
0
INSERT
8
0
2
break
10
257.2500000
20
533.3750000
41
1.0000000
42
1.0000000
43
1.0000000
50
90.0000000
0
INSERT
8
0
2
P_EX59Y59D35168
10
263.3750000
20
534.0000000
41
1.0000000
42
1.0000000
43
1.0000000
50
0.0000000
0
INSERT
8
0
2
small1
10
275.1250000
20
533.0000000
41
1.0000000
42
1.0000000
43
1.0000000
50
0.0000000
0
INSERT
8
0
2
small1
10
276.1250000
20
533.0000000
41
1.0000000
42
1.0000000
43
1.0000000
50
0.0000000
0
INSERT
8
0
2
small1
10
277.2500000
20
533.0000000
41
1.0000000
42
1.0000000
43
1.0000000
50
0.0000000
0
INSERT
8
0
2
small1
10
278.5000000
20
533.0000000
41
1.0000000
42
1.0000000
43
1.0000000
50
0.0000000
0
INSERT
8
0
2
J6
10
0.0000000
20
0.0000000
41
1.0000000
42
1.0000000
43
1.0000000
50
0.0000000
0
INSERT
8
0
2
R7
10
0.0000000
20
0.0000000
41
1.0000000
42
1.0000000
43
1.0000000
50
0.0000000
0
INSERT
8
0
2
small46
10
292.6250000
20
526.0000000
41
1.0000000
42
1.0000000
43
1.0000000
50
0.0000000
0
INSERT
8
0
2
small48
10
295.5000000
20
526.0000000
41
1.0000000
42
1.0000000
43
1.0000000
50
0.0000000
0
INSERT
8
0
2
27
10
0.0000000
20
0.0000000
41
1.0000000
42
1.0000000
43
1.0000000
50
0.0000000
0
INSERT
8
0
2
R2
10
0.0000000
20
0.0000000
41
1.0000000
42
1.0000000
43
1.0000000
50
0.0000000
0
INSERT
8
0
2
065_0_8mm_round18
10
309.7500000
20
487.5000000
41
1.0000000
42
1.0000000
43
1.0000000
50
270.0000000
0
INSERT
8
0
2
26
10
0.0000000
20
0.0000000
41
1.0000000
42
1.0000000
43
1.0000000
50
0.0000000
0
INSERT
8
0
2
prototh
10
315.2900000
20
487.4050000
41
1.0000000
42
1.0000000
43
1.0000000
50
0.0000000
0
INSERT
8
0
2
prototh
10
317.8300000
20
487.4050000
41
1.0000000
42
1.0000000
43
1.0000000
50
0.0000000
0
INSERT
8
0
2
protopad
10
316.5600000
20
485.0000000
41
1.0000000
42
1.0000000
43
1.0000000
50
0.0000000
0
INSERT
8
0
2
protopad
10
317.8300000
20
485.0000000
41
1.0000000
42
1.0000000
43
1.0000000
50
0.0000000
0
INSERT
8
0
2
protopad
10
315.2900000
20
485.0000000
41
1.0000000
42
1.0000000
43
1.0000000
50
0.0000000
0
INSERT
8
0
2
protopad
10
314.0200000
20
485.0000000
41
1.0000000
42
1.0000000
43
1.0000000
50
0.0000000
0
INSERT
8
0
2
protopad
10
319.1000000
20
485.0000000
41
1.0000000
42
1.0000000
43
1.0000000
50
0.0000000
0
INSERT
8
0
2
prototh
10
315.2900000
20
495.0250000
41
1.0000000
42
1.0000000
43
1.0000000
50
0.0000000
0
INSERT
8
0
2
prototh
10
317.8300000
20
495.0250000
41
1.0000000
42
1.0000000
43
1.0000000
50
0.0000000
0
INSERT
8
0
2
R21
10
0.0000000
20
0.0000000
41
1.0000000
42
1.0000000
43
1.0000000
50
0.0000000
0
INSERT
8
0
2
prototh
10
322.9100000
20
487.4050000
41
1.0000000
42
1.0000000
43
1.0000000
50
0.0000000
0
INSERT
8
0
2
prototh
10
325.4500000
20
487.4050000
41
1.0000000
42
1.0000000
43
1.0000000
50
0.0000000
0
INSERT
8
0
2
protopad
10
324.1800000
20
485.0000000
41
1.0000000
42
1.0000000
43
1.0000000
50
0.0000000
0
INSERT
8
0
2
protopad
10
325.4500000
20
485.0000000
41
1.0000000
42
1.0000000
43
1.0000000
50
0.0000000
0
INSERT
8
0
2
protopad
10
322.9100000
20
485.0000000
41
1.0000000
42
1.0000000
43
1.0000000
50
0.0000000
0
INSERT
8
0
2
protopad
10
321.6400000
20
485.0000000
41
1.0000000
42
1.0000000
43
1.0000000
50
0.0000000
0
INSERT
8
0
2
protopad
10
326.7200000
20
485.0000000
41
1.0000000
42
1.0000000
43
1.0000000
50
0.0000000
0
INSERT
8
0
2
small57
10
326.3750000
20
510.7500000
41
1.0000000
42
1.0000000
43
1.0000000
50
0.0000000
0
INSERT
8
0
2
prototh
10
322.9100000
20
495.0250000
41
1.0000000
42
1.0000000
43
1.0000000
50
0.0000000
0
INSERT
8
0
2
prototh
10
325.4500000
20
495.0250000
41
1.0000000
42
1.0000000
43
1.0000000
50
0.0000000
0
INSERT
8
0
2
small1
10
324.2500000
20
518.2500000
41
1.0000000
42
1.0000000
43
1.0000000
50
0.0000000
0
INSERT
8
0
2
prototh
10
330.5300000
20
487.4050000
41
1.0000000
42
1.0000000
43
1.0000000
50
0.0000000
0
INSERT
8
0
2
prototh
10
333.0700000
20
487.4050000
41
1.0000000
42
1.0000000
43
1.0000000
50
0.0000000
0
INSERT
8
0
2
protopad
10
331.8000000
20
485.0000000
41
1.0000000
42
1.0000000
43
1.0000000
50
0.0000000
0
INSERT
8
0
2
protopad
10
333.0700000
20
485.0000000
41
1.0000000
42
1.0000000
43
1.0000000
50
0.0000000
0
INSERT
8
0
2
protopad
10
330.5300000
20
485.0000000
41
1.0000000
42
1.0000000
43
1.0000000
50
0.0000000
0
INSERT
8
0
2
protopad
10
329.2600000
20
485.0000000
41
1.0000000
42
1.0000000
43
1.0000000
50
0.0000000
0
INSERT
8
0
2
protopad
10
334.3400000
20
485.0000000
41
1.0000000
42
1.0000000
43
1.0000000
50
0.0000000
0
INSERT
8
0
2
29
10
0.0000000
20
0.0000000
41
1.0000000
42
1.0000000
43
1.0000000
50
0.0000000
0
INSERT
8
0
2
11
10
0.0000000
20
0.0000000
41
1.0000000
42
1.0000000
43
1.0000000
50
0.0000000
0
INSERT
8
0
2
9
10
0.0000000
20
0.0000000
41
1.0000000
42
1.0000000
43
1.0000000
50
0.0000000
0
INSERT
8
0
2
small57
10
330.5000000
20
510.3750000
41
1.0000000
42
1.0000000
43
1.0000000
50
0.0000000
0
INSERT
8
0
2
prototh
10
330.5300000
20
495.0250000
41
1.0000000
42
1.0000000
43
1.0000000
50
0.0000000
0
INSERT
8
0
2
prototh
10
333.0700000
20
495.0250000
41
1.0000000
42
1.0000000
43
1.0000000
50
0.0000000
0
INSERT
8
0
2
12
10
0.0000000
20
0.0000000
41
1.0000000
42
1.0000000
43
1.0000000
50
0.0000000
0
INSERT
8
0
2
C13
10
0.0000000
20
0.0000000
41
1.0000000
42
1.0000000
43
1.0000000
50
0.0000000
0
INSERT
8
0
2
small1
10
342.2500000
20
502.7500000
41
1.0000000
42
1.0000000
43
1.0000000
50
0.0000000
0
INSERT
8
0
2
1
10
0.0000000
20
0.0000000
41
1.0000000
42
1.0000000
43
1.0000000
50
0.0000000
0
INSERT
8
0
2
21
10
0.0000000
20
0.0000000
41
1.0000000
42
1.0000000
43
1.0000000
50
0.0000000
0
INSERT
8
0
2
small29
10
341.0000000
20
495.6250000
41
1.0000000
42
1.0000000
43
1.0000000
50
0.0000000
0
INSERT
8
0
2
small18
10
349.1250000
20
502.8750000
41
1.0000000
42
1.0000000
43
1.0000000
50
0.0000000
0
INSERT
8
0
2
small17
10
344.0000000
20
502.8750000
41
1.0000000
42
1.0000000
43
1.0000000
50
0.0000000
0
INSERT
8
0
2
small16
10
345.2500000
20
502.6250000
41
1.0000000
42
1.0000000
43
1.0000000
50
0.0000000
0
INSERT
8
0
2
2
10
0.0000000
20
0.0000000
41
1.0000000
42
1.0000000
43
1.0000000
50
0.0000000
0
INSERT
8
0
2
C15
10
0.0000000
20
0.0000000
41
1.0000000
42
1.0000000
43
1.0000000
50
0.0000000
0
INSERT
8
0
2
small60
10
352.2500000
20
495.6250000
41
1.0000000
42
1.0000000
43
1.0000000
50
0.0000000
0
INSERT
8
0
2
small59
10
351.1250000
20
495.2500000
41
1.0000000
42
1.0000000
43
1.0000000
50
0.0000000
0
INSERT
8
0
2
R5
10
0.0000000
20
0.0000000
41
1.0000000
42
1.0000000
43
1.0000000
50
0.0000000
0
INSERT
8
0
2
R10
10
0.0000000
20
0.0000000
41
1.0000000
42
1.0000000
43
1.0000000
50
0.0000000
0
INSERT
8
0
2
C12
10
0.0000000
20
0.0000000
41
1.0000000
42
1.0000000
43
1.0000000
50
0.0000000
0
INSERT
8
0
2
C16
10
0.0000000
20
0.0000000
41
1.0000000
42
1.0000000
43
1.0000000
50
0.0000000
0
INSERT
8
0
2
P_EX59Y59D35145
10
370.3750000
20
534.0000000
41
1.0000000
42
1.0000000
43
1.0000000
50
0.0000000
0
INSERT
8
0
2
B2
10
0.0000000
20
0.0000000
41
1.0000000
42
1.0000000
43
1.0000000
50
0.0000000
0
INSERT
8
0
2
break_F
10
376.7500000
20
488.0000000
41
1.0000000
42
1.0000000
43
1.0000000
50
-90.0000000
0
INSERT
8
0
2
break_F
10
376.7500000
20
487.2500000
41
1.0000000
42
1.0000000
43
1.0000000
50
-90.0000000
0
INSERT
8
0
2
break_F
10
376.7500000
20
533.3750000
41
1.0000000
42
1.0000000
43
1.0000000
50
-90.0000000
0
INSERT
8
0
2
protopad
10
316.5600000
20
492.6250000
41
1.0000000
42
1.0000000
43
1.0000000
50
0.0000000
0
INSERT
8
0
2
protopad
10
317.8300000
20
492.6250000
41
1.0000000
42
1.0000000
43
1.0000000
50
0.0000000
0
INSERT
8
0
2
protopad
10
315.2900000
20
492.6250000
41
1.0000000
42
1.0000000
43
1.0000000
50
0.0000000
0
INSERT
8
0
2
protopad
10
314.0200000
20
492.6250000
41
1.0000000
42
1.0000000
43
1.0000000
50
0.0000000
0
INSERT
8
0
2
protopad
10
319.1000000
20
492.6250000
41
1.0000000
42
1.0000000
43
1.0000000
50
0.0000000
0
INSERT
8
0
2
protopad
10
324.1800000
20
492.6250000
41
1.0000000
42
1.0000000
43
1.0000000
50
0.0000000
0
INSERT
8
0
2
protopad
10
325.4500000
20
492.6250000
41
1.0000000
42
1.0000000
43
1.0000000
50
0.0000000
0
INSERT
8
0
2
protopad
10
322.9100000
20
492.6250000
41
1.0000000
42
1.0000000
43
1.0000000
50
0.0000000
0
INSERT
8
0
2
protopad
10
321.6400000
20
492.6250000
41
1.0000000
42
1.0000000
43
1.0000000
50
0.0000000
0
INSERT
8
0
2
protopad
10
326.7200000
20
492.6250000
41
1.0000000
42
1.0000000
43
1.0000000
50
0.0000000
0
INSERT
8
0
2
protopad
10
331.8000000
20
492.6250000
41
1.0000000
42
1.0000000
43
1.0000000
50
0.0000000
0
INSERT
8
0
2
protopad
10
333.0700000
20
492.6250000
41
1.0000000
42
1.0000000
43
1.0000000
50
0.0000000
0
INSERT
8
0
2
protopad
10
330.5300000
20
492.6250000
41
1.0000000
42
1.0000000
43
1.0000000
50
0.0000000
0
INSERT
8
0
2
protopad
10
329.2600000
20
492.6250000
41
1.0000000
42
1.0000000
43
1.0000000
50
0.0000000
0
INSERT
8
0
2
protopad
10
334.3400000
20
492.6250000
41
1.0000000
42
1.0000000
43
1.0000000
50
0.0000000
0
INSERT
8
0
2
Q1
10
0.0000000
20
0.0000000
41
1.0000000
42
1.0000000
43
1.0000000
50
0.0000000
0
INSERT
8
0
2
D3
10
0.0000000
20
0.0000000
41
1.0000000
42
1.0000000
43
1.0000000
50
0.0000000
0
INSERT
8
0
2
FID1
10
0.0000000
20
0.0000000
41
1.0000000
42
1.0000000
43
1.0000000
50
0.0000000
0
INSERT
8
0
2
R8
10
0.0000000
20
0.0000000
41
1.0000000
42
1.0000000
43
1.0000000
50
0.0000000
0
INSERT
8
0
2
U3
10
0.0000000
20
0.0000000
41
1.0000000
42
1.0000000
43
1.0000000
50
0.0000000
0
INSERT
8
0
2
D2
10
0.0000000
20
0.0000000
41
1.0000000
42
1.0000000
43
1.0000000
50
0.0000000
0
INSERT
8
0
2
C6
10
0.0000000
20
0.0000000
41
1.0000000
42
1.0000000
43
1.0000000
50
0.0000000
0
INSERT
8
0
2
small45
10
289.1250000
20
539.6250000
41
1.0000000
42
1.0000000
43
1.0000000
50
0.0000000
0
INSERT
8
0
2
small1
10
289.5000000
20
537.0000000
41
1.0000000
42
1.0000000
43
1.0000000
50
0.0000000
0
INSERT
8
0
2
L1
10
0.0000000
20
0.0000000
41
1.0000000
42
1.0000000
43
1.0000000
50
0.0000000
0
INSERT
8
0
2
prototh
10
312.7500000
20
482.3250000
41
1.0000000
42
1.0000000
43
1.0000000
50
0.0000000
0
INSERT
8
0
2
prototh
10
312.7500000
20
484.8650000
41
1.0000000
42
1.0000000
43
1.0000000
50
0.0000000
0
INSERT
8
0
2
prototh
10
320.3700000
20
482.3250000
41
1.0000000
42
1.0000000
43
1.0000000
50
0.0000000
0
INSERT
8
0
2
prototh
10
320.3700000
20
484.8650000
41
1.0000000
42
1.0000000
43
1.0000000
50
0.0000000
0
INSERT
8
0
2
prototh
10
327.9900000
20
482.3250000
41
1.0000000
42
1.0000000
43
1.0000000
50
0.0000000
0
INSERT
8
0
2
prototh
10
327.9900000
20
484.8650000
41
1.0000000
42
1.0000000
43
1.0000000
50
0.0000000
0
INSERT
8
0
2
prototh
10
335.6100000
20
482.3250000
41
1.0000000
42
1.0000000
43
1.0000000
50
0.0000000
0
INSERT
8
0
2
prototh
10
335.6100000
20
484.8650000
41
1.0000000
42
1.0000000
43
1.0000000
50
0.0000000
0
INSERT
8
0
2
prototh
10
312.7500000
20
489.9450000
41
1.0000000
42
1.0000000
43
1.0000000
50
0.0000000
0
INSERT
8
0
2
prototh
10
312.7500000
20
492.4850000
41
1.0000000
42
1.0000000
43
1.0000000
50
0.0000000
0
INSERT
8
0
2
prototh
10
320.3700000
20
489.9450000
41
1.0000000
42
1.0000000
43
1.0000000
50
0.0000000
0
INSERT
8
0
2
prototh
10
320.3700000
20
492.4850000
41
1.0000000
42
1.0000000
43
1.0000000
50
0.0000000
0
INSERT
8
0
2
prototh
10
327.9900000
20
489.9450000
41
1.0000000
42
1.0000000
43
1.0000000
50
0.0000000
0
INSERT
8
0
2
prototh
10
327.9900000
20
492.4850000
41
1.0000000
42
1.0000000
43
1.0000000
50
0.0000000
0
INSERT
8
0
2
prototh
10
335.6100000
20
489.9450000
41
1.0000000
42
1.0000000
43
1.0000000
50
0.0000000
0
INSERT
8
0
2
prototh
10
335.6100000
20
492.4850000
41
1.0000000
42
1.0000000
43
1.0000000
50
0.0000000
0
INSERT
8
0
2
P_EX59Y59D35117
10
327.9450000
20
497.5650000
41
1.0000000
42
1.0000000
43
1.0000000
50
0.0000000
0
INSERT
8
0
2
19
10
0.0000000
20
0.0000000
41
1.0000000
42
1.0000000
43
1.0000000
50
0.0000000
0
INSERT
8
0
2
23
10
0.0000000
20
0.0000000
41
1.0000000
42
1.0000000
43
1.0000000
50
0.0000000
0
INSERT
8
0
2
small34
10
334.8750000
20
525.2500000
41
1.0000000
42
1.0000000
43
1.0000000
50
0.0000000
0
INSERT
8
0
2
small1
10
327.7500000
20
519.0000000
41
1.0000000
42
1.0000000
43
1.0000000
50
0.0000000
0
INSERT
8
0
2
R12
10
0.0000000
20
0.0000000
41
1.0000000
42
1.0000000
43
1.0000000
50
0.0000000
0
INSERT
8
0
2
C17
10
0.0000000
20
0.0000000
41
1.0000000
42
1.0000000
43
1.0000000
50
0.0000000
0
INSERT
8
0
2
small1
10
312.6250000
20
529.5000000
41
1.0000000
42
1.0000000
43
1.0000000
50
0.0000000
0
INSERT
8
0
2
U4
10
0.0000000
20
0.0000000
41
1.0000000
42
1.0000000
43
1.0000000
50
0.0000000
0
INSERT
8
0
2
small1
10
343.1250000
20
489.6250000
41
1.0000000
42
1.0000000
43
1.0000000
50
0.0000000
0
INSERT
8
0
2
C18
10
0.0000000
20
0.0000000
41
1.0000000
42
1.0000000
43
1.0000000
50
0.0000000
0
INSERT
8
0
2
small1
10
350.1250000
20
501.3750000
41
1.0000000
42
1.0000000
43
1.0000000
50
0.0000000
0
INSERT
8
0
2
small11
10
342.5000000
20
504.8750000
41
1.0000000
42
1.0000000
43
1.0000000
50
0.0000000
0
INSERT
8
0
2
small1
10
350.8750000
20
514.2500000
41
1.0000000
42
1.0000000
43
1.0000000
50
0.0000000
0
INSERT
8
0
2
22
10
0.0000000
20
0.0000000
41
1.0000000
42
1.0000000
43
1.0000000
50
0.0000000
0
INSERT
8
0
2
C3
10
0.0000000
20
0.0000000
41
1.0000000
42
1.0000000
43
1.0000000
50
0.0000000
0
INSERT
8
0
2
small1
10
343.0000000
20
517.1250000
41
1.0000000
42
1.0000000
43
1.0000000
50
0.0000000
0
INSERT
8
0
2
R1
10
0.0000000
20
0.0000000
41
1.0000000
42
1.0000000
43
1.0000000
50
0.0000000
0
INSERT
8
0
2
wirestrap1
10
350.2500000
20
531.8750000
41
1.0000000
42
1.0000000
43
1.0000000
50
0.0000000
0
INSERT
8
0
2
small1
10
274.1250000
20
533.0000000
41
1.0000000
42
1.0000000
43
1.0000000
50
0.0000000
0
INSERT
8
0
2
B1
10
0.0000000
20
0.0000000
41
1.0000000
42
1.0000000
43
1.0000000
50
0.0000000
0
INSERT
8
0
2
small46
10
289.2500000
20
526.0000000
41
1.0000000
42
1.0000000
43
1.0000000
50
0.0000000
0
INSERT
8
0
2
L2
10
0.0000000
20
0.0000000
41
1.0000000
42
1.0000000
43
1.0000000
50
0.0000000
0
INSERT
8
0
2
D1
10
0.0000000
20
0.0000000
41
1.0000000
42
1.0000000
43
1.0000000
50
0.0000000
0
INSERT
8
0
2
S6
10
0.0000000
20
0.0000000
41
1.0000000
42
1.0000000
43
1.0000000
50
0.0000000
0
INSERT
8
0
2
U5
10
0.0000000
20
0.0000000
41
1.0000000
42
1.0000000
43
1.0000000
50
0.0000000
0
INSERT
8
0
2
protopad
10
312.7500000
20
485.0000000
41
1.0000000
42
1.0000000
43
1.0000000
50
0.0000000
0
INSERT
8
0
2
prototh
10
312.7500000
20
487.4050000
41
1.0000000
42
1.0000000
43
1.0000000
50
0.0000000
0
INSERT
8
0
2
protopad
10
320.3700000
20
485.0000000
41
1.0000000
42
1.0000000
43
1.0000000
50
0.0000000
0
INSERT
8
0
2
prototh
10
320.3700000
20
487.4050000
41
1.0000000
42
1.0000000
43
1.0000000
50
0.0000000
0
INSERT
8
0
2
protopad
10
327.9900000
20
485.0000000
41
1.0000000
42
1.0000000
43
1.0000000
50
0.0000000
0
INSERT
8
0
2
prototh
10
327.9900000
20
487.4050000
41
1.0000000
42
1.0000000
43
1.0000000
50
0.0000000
0
INSERT
8
0
2
protopad
10
335.6100000
20
485.0000000
41
1.0000000
42
1.0000000
43
1.0000000
50
0.0000000
0
INSERT
8
0
2
prototh
10
335.6100000
20
487.4050000
41
1.0000000
42
1.0000000
43
1.0000000
50
0.0000000
0
INSERT
8
0
2
prototh
10
312.7500000
20
495.0250000
41
1.0000000
42
1.0000000
43
1.0000000
50
0.0000000
0
INSERT
8
0
2
prototh
10
320.3700000
20
495.0250000
41
1.0000000
42
1.0000000
43
1.0000000
50
0.0000000
0
INSERT
8
0
2
prototh
10
327.9900000
20
495.0250000
41
1.0000000
42
1.0000000
43
1.0000000
50
0.0000000
0
INSERT
8
0
2
prototh
10
335.6100000
20
495.0250000
41
1.0000000
42
1.0000000
43
1.0000000
50
0.0000000
0
INSERT
8
0
2
J2
10
0.0000000
20
0.0000000
41
1.0000000
42
1.0000000
43
1.0000000
50
0.0000000
0
INSERT
8
0
2
hang
10
316.8750000
20
536.8750000
41
1.0000000
42
1.0000000
43
1.0000000
50
0.0000000
0
INSERT
8
0
2
R11
10
0.0000000
20
0.0000000
41
1.0000000
42
1.0000000
43
1.0000000
50
0.0000000
0
INSERT
8
0
2
U6
10
0.0000000
20
0.0000000
41
1.0000000
42
1.0000000
43
1.0000000
50
0.0000000
0
INSERT
8
0
2
C2
10
0.0000000
20
0.0000000
41
1.0000000
42
1.0000000
43
1.0000000
50
0.0000000
0
INSERT
8
0
2
31
10
0.0000000
20
0.0000000
41
1.0000000
42
1.0000000
43
1.0000000
50
0.0000000
0
INSERT
8
0
2
L3
10
0.0000000
20
0.0000000
41
1.0000000
42
1.0000000
43
1.0000000
50
0.0000000
0
INSERT
8
0
2
U1
10
0.0000000
20
0.0000000
41
1.0000000
42
1.0000000
43
1.0000000
50
0.0000000
0
INSERT
8
0
2
ledhole
10
354.3750000
20
529.8750000
41
1.0000000
42
1.0000000
43
1.0000000
50
0.0000000
0
INSERT
8
0
2
S5
10
0.0000000
20
0.0000000
41
1.0000000
42
1.0000000
43
1.0000000
50
0.0000000
0
INSERT
8
0
2
R15
10
0.0000000
20
0.0000000
41
1.0000000
42
1.0000000
43
1.0000000
50
0.0000000
0
INSERT
8
0
2
S2
10
0.0000000
20
0.0000000
41
1.0000000
42
1.0000000
43
1.0000000
50
0.0000000
0
INSERT
8
0
2
S3
10
0.0000000
20
0.0000000
41
1.0000000
42
1.0000000
43
1.0000000
50
0.0000000
0
INSERT
8
0
2
protopad
10
312.7500000
20
492.6250000
41
1.0000000
42
1.0000000
43
1.0000000
50
0.0000000
0
INSERT
8
0
2
protopad
10
320.3700000
20
492.6250000
41
1.0000000
42
1.0000000
43
1.0000000
50
0.0000000
0
INSERT
8
0
2
protopad
10
327.9900000
20
492.6250000
41
1.0000000
42
1.0000000
43
1.0000000
50
0.0000000
0
INSERT
8
0
2
protopad
10
335.6100000
20
492.6250000
41
1.0000000
42
1.0000000
43
1.0000000
50
0.0000000
0
INSERT
8
0
2
J5
10
0.0000000
20
0.0000000
41
1.0000000
42
1.0000000
43
1.0000000
50
0.0000000
0
INSERT
8
0
2
J4
10
0.0000000
20
0.0000000
41
1.0000000
42
1.0000000
43
1.0000000
50
0.0000000
0
INSERT
8
0
2
J1
10
0.0000000
20
0.0000000
41
1.0000000
42
1.0000000
43
1.0000000
50
0.0000000
0
INSERT
8
0
2
C14
10
0.0000000
20
0.0000000
41
1.0000000
42
1.0000000
43
1.0000000
50
0.0000000
0
INSERT
8
0
2
S4
10
0.0000000
20
0.0000000
41
1.0000000
42
1.0000000
43
1.0000000
50
0.0000000
0
INSERT
8
0
2
J3
10
0.0000000
20
0.0000000
41
1.0000000
42
1.0000000
43
1.0000000
50
0.0000000
0
INSERT
8
0
2
S1
10
0.0000000
20
0.0000000
41
1.0000000
42
1.0000000
43
1.0000000
50
0.0000000
0
ARC
8
Board
6
CONTINUOUS
10
256.0000000
20
485.0000000
40
1.0000000
50
0.0000000
51
180.0000000
0
LINE
8
Board
6
CONTINUOUS
10
257.0000000
20
485.0000000
11
257.0000000
21
483.0000000
0
LINE
8
Board
6
CONTINUOUS
10
255.0000000
20
485.0000000
11
255.0000000
21
483.0000000
0
ARC
8
Board
6
CONTINUOUS
10
256.0000000
20
491.0000000
40
1.0000000
50
180.0000000
51
0.0000000
0
ARC
8
Board
6
CONTINUOUS
10
256.0000000
20
531.1250000
40
1.0000000
50
0.0000000
51
180.0000000
0
ARC
8
Board
6
CONTINUOUS
10
256.0000000
20
537.1250000
40
1.0000000
50
180.0000000
51
0.0000000
0
LINE
8
Board
6
CONTINUOUS
10
255.0000000
20
539.0000000
11
255.0000000
21
537.1250000
0
LINE
8
Board
6
CONTINUOUS
10
257.0000000
20
539.0000000
11
257.0000000
21
537.1250000
0
ARC
8
Board
6
CONTINUOUS
10
339.8661700
20
536.7026900
40
1.0000100
50
134.7000000
51
312.7000000
0
ARC
8
Board
6
CONTINUOUS
10
349.7965700
20
531.9571600
40
1.1615300
50
99.6000000
51
175.4000000
0
ARC
8
Board
6
CONTINUOUS
10
344.5000000
20
534.5750000
40
1.9368700
50
71.6000000
51
89.3000000
0
ARC
8
Board
6
CONTINUOUS
10
347.5250000
20
535.7500000
40
0.7893800
50
286.2000000
51
49.8000000
0
ARC
8
Board
6
CONTINUOUS
10
347.5250000
20
537.7250000
40
2.7697000
50
208.2000000
51
273.7000000
0
LINE
8
Board
6
CONTINUOUS
10
350.6500000
20
534.0750000
11
350.6500000
21
536.4250000
0
ARC
8
Board
6
CONTINUOUS
10
378.0000000
20
485.0000000
40
1.0000000
50
0.0000000
51
180.0000000
0
LINE
8
Board
6
CONTINUOUS
10
377.0000000
20
485.0000000
11
377.0000000
21
483.0000000
0
LINE
8
Board
6
CONTINUOUS
10
379.0000000
20
485.0000000
11
379.0000000
21
483.0000000
0
ARC
8
Board
6
CONTINUOUS
10
375.0000000
20
483.0000000
40
2.0000000
50
270.0000000
51
0.0000000
0
ARC
8
Board
6
CONTINUOUS
10
378.0000000
20
491.0000000
40
1.0000000
50
180.0000000
51
0.0000000
0
ARC
8
Board
6
CONTINUOUS
10
378.0000000
20
531.1250000
40
1.0000000
50
0.0000000
51
180.0000000
0
ARC
8
Board
6
CONTINUOUS
10
378.0000000
20
537.1250000
40
1.0000000
50
180.0000000
51
0.0000000
0
LINE
8
Board
6
CONTINUOUS
10
379.0000000
20
539.0000000
11
379.0000000
21
537.1250000
0
LINE
8
Board
6
CONTINUOUS
10
377.0000000
20
539.0000000
11
377.0000000
21
537.1250000
0
ARC
8
Board
6
CONTINUOUS
10
323.1250000
20
537.0000000
40
3.9999800
50
60.3000000
51
91.7000000
0
ARC
8
Board
6
CONTINUOUS
10
337.3750000
20
537.0000000
40
3.9999800
50
88.3000000
51
119.7000000
0
ARC
8
Board
6
CONTINUOUS
10
360.7500000
20
537.0000000
40
3.9999800
50
90.0000000
51
119.7000000
0
ARC
8
Board
6
CONTINUOUS
10
375.0000000
20
483.0000000
40
4.0000000
50
270.0000000
51
0.0000000
0
ARC
8
Board
6
CONTINUOUS
10
375.0000000
20
539.0000000
40
2.0000000
50
0.0000000
51
90.0000000
0
ARC
8
Board
6
CONTINUOUS
10
375.0000000
20
539.0000000
40
4.0000000
50
0.0000000
51
90.0000000
0
LINE
8
Board
6
CONTINUOUS
10
257.0000000
20
531.1250000
11
257.0000000
21
491.0000000
0
LINE
8
Board
6
CONTINUOUS
10
255.0000000
20
531.1250000
11
255.0000000
21
491.0000000
0
LINE
8
Board
6
CONTINUOUS
10
253.5000000
20
478.1250000
11
253.5000000
21
544.7500000
0
LINE
8
Board
6
CONTINUOUS
10
377.0000000
20
531.1250000
11
377.0000000
21
491.0000000
0
LINE
8
Board
6
CONTINUOUS
10
379.0000000
20
531.1250000
11
379.0000000
21
491.0000000
0
ARC
8
Board
6
CONTINUOUS
10
259.0000000
20
483.0000000
40
2.0000000
50
180.0000000
51
270.0000000
0
ARC
8
Board
6
CONTINUOUS
10
330.2500000
20
551.8750000
40
12.5112600
50
245.7000000
51
294.5000000
0
ARC
8
Board
6
CONTINUOUS
10
344.5000000
20
532.1500000
40
4.1250000
50
180.3000000
51
359.0000000
0
ARC
8
Board
6
CONTINUOUS
10
354.7500000
20
547.3750000
40
8.0000100
50
239.8000000
51
300.5000000
0
ARC
8
Board
6
CONTINUOUS
10
349.6500000
20
536.5500000
40
0.9999900
50
354.3000000
51
45.0000000
0
ARC
8
Board
6
CONTINUOUS
10
344.5000000
20
532.1500000
40
5.5000100
50
50.0000000
51
136.1000000
0
ARC
8
Board
6
CONTINUOUS
10
259.0000000
20
483.0000000
40
4.0000000
50
180.0000000
51
270.0000000
0
ARC
8
Board
6
CONTINUOUS
10
259.0000000
20
539.0000000
40
2.0000000
50
90.0000000
51
180.0000000
0
ARC
8
Board
6
CONTINUOUS
10
259.0000000
20
539.0000000
40
4.0000000
50
90.0000000
51
180.0000000
0
ARC
8
Board
6
CONTINUOUS
10
348.7500000
20
537.0000000
40
3.9999800
50
60.3000000
51
90.0000000
0
ARC
8
Board
6
CONTINUOUS
10
344.5000000
20
532.4000000
40
4.1250000
50
89.7000000
51
184.2000000
0
ARC
8
Board
6
CONTINUOUS
10
349.6500000
20
534.1000000
40
0.9999800
50
267.4000000
51
358.6000000
0
LINE
8
Board
6
CONTINUOUS
10
381.0000000
20
544.7500000
11
381.0000000
21
478.1250000
0
ARC
8
Board
6
CONTINUOUS
10
344.6750000
20
532.1750000
40
7.6276300
50
41.7000000
51
136.5000000
0
LINE
8
Board
6
CONTINUOUS
10
348.7500000
20
541.0000000
11
337.3750000
21
541.0000000
0
LINE
8
Board
6
CONTINUOUS
10
375.0000000
20
541.0000000
11
360.7500000
21
541.0000000
0
LINE
8
Board
6
CONTINUOUS
10
259.0000000
20
479.0000000
11
375.0000000
21
479.0000000
0
LINE
8
Board
6
CONTINUOUS
10
381.0000000
20
478.1250000
11
253.5000000
21
478.1250000
0
LINE
8
Board
6
CONTINUOUS
10
259.0000000
20
481.0000000
11
375.0000000
21
481.0000000
0
LINE
8
Board
6
CONTINUOUS
10
375.0000000
20
543.0000000
11
259.0000000
21
543.0000000
0
LINE
8
Board
6
CONTINUOUS
10
253.5000000
20
544.7500000
11
381.0000000
21
544.7500000
0
LINE
8
Board
6
CONTINUOUS
10
323.0000000
20
541.0000000
11
259.0000000
21
541.0000000
0
TEXT
8
Top_Silk
10
278.1250000
20
534.0000000
40
0.8000000
1
Power Bypass
50
90.0
7
STANDARD
71
0
72
0
0
LINE
8
Top_Silk
6
CONTINUOUS
10
282.3750000
20
539.1250000
11
282.3750000
21
540.5000000
0
TEXT
8
Top_Silk
10
293.1250000
20
482.0000000
40
2.0320000
1
2
50
0.0
7
STANDARD
71
0
72
0
0
TEXT
8
Top_Silk
10
310.7500000
20
484.0000000
40
0.8000000
1
0V
50
0.0
7
STANDARD
71
0
72
0
0
TEXT
8
Top_Silk
10
308.7500000
20
485.5000000
40
0.8000000
1
2V8
50
0.0
7
STANDARD
71
0
72
0
0
TEXT
8
Top_Silk
10
310.7500000
20
491.7500000
40
0.8000000
1
0V
50
0.0
7
STANDARD
71
0
72
0
0
TEXT
8
Top_Silk
10
310.7500000
20
489.1250000
40
0.8000000
1
0V
50
0.0
7
STANDARD
71
0
72
0
0
TEXT
8
Top_Silk
10
308.7500000
20
488.0000000
40
0.8000000
1
2V8
50
0.0
7
STANDARD
71
0
72
0
0
CIRCLE
8
Top_Silk
6
CONTINUOUS
10
316.8750000
20
536.8750000
40
2.7414600
0
TEXT
8
Top_Silk
10
322.1250000
20
498.5000000
40
0.8000000
1
0V
50
0.0
7
STANDARD
71
0
72
0
0
TEXT
8
Top_Silk
10
324.2500000
20
498.5000000
40
0.8000000
1
2V8
50
0.0
7
STANDARD
71
0
72
0
0
LINE
8
Top_Silk
6
CONTINUOUS
10
322.5000000
20
503.1250000
11
323.1250000
21
503.1250000
0
LINE
8
Top_Silk
6
CONTINUOUS
10
322.5000000
20
518.5000000
11
323.0000000
21
518.5000000
0
LINE
8
Top_Silk
6
CONTINUOUS
10
322.5000000
20
518.5000000
11
320.7500000
21
524.8750000
0
TEXT
8
Top_Silk
10
329.5000000
20
498.6250000
40
0.8000000
1
SCL
50
0.0
7
STANDARD
71
0
72
0
0
TEXT
8
Top_Silk
10
332.1250000
20
498.5000000
40
0.8000000
1
3V3
50
0.0
7
STANDARD
71
0
72
0
0
TEXT
8
Top_Silk
10
339.3750000
20
482.0000000
40
0.8000000
1
0V
50
0.0
7
STANDARD
71
0
72
0
0
TEXT
8
Top_Silk
10
337.8750000
20
483.8750000
40
0.8000000
1
1
50
0.0
7
STANDARD
71
0
72
0
0
TEXT
8
Top_Silk
10
339.2500000
20
488.8750000
40
0.8000000
1
SDA
50
0.0
7
STANDARD
71
0
72
0
0
LINE
8
Top_Silk
6
CONTINUOUS
10
338.2500000
20
523.1250000
11
338.2500000
21
521.7500000
0
LINE
8
Top_Silk
6
CONTINUOUS
10
337.2500000
20
528.5000000
11
337.2500000
21
533.0000000
0
TEXT
8
Top_Silk
10
344.3750000
20
482.0000000
40
0.8000000
1
RA2
50
0.0
7
STANDARD
71
0
72
0
0
TEXT
8
Top_Silk
10
346.8750000
20
482.0000000
40
0.8000000
1
RB0
50
0.0
7
STANDARD
71
0
72
0
0
TEXT
8
Top_Silk
10
347.0000000
20
488.7500000
40
0.8000000
1
RC5
50
0.0
7
STANDARD
71
0
72
0
0
TEXT
8
Top_Silk
10
344.5000000
20
488.7500000
40
0.8000000
1
RB4
50
0.0
7
STANDARD
71
0
72
0
0
TEXT
8
Top_Silk
10
347.1250000
20
489.6250000
40
0.8000000
1
TX1
50
0.0
7
STANDARD
71
0
72
0
0
TEXT
8
Top_Silk
10
351.8750000
20
482.0000000
40
0.8000000
1
VBAT
50
0.0
7
STANDARD
71
0
72
0
0
TEXT
8
Top_Silk
10
352.1250000
20
488.7500000
40
0.8000000
1
RB1
50
0.0
7
STANDARD
71
0
72
0
0
TEXT
8
Top_Silk
10
355.3750000
20
489.7500000
40
0.8000000
1
0V
50
0.0
7
STANDARD
71
0
72
0
0
TEXT
8
Top_Silk
10
356.0000000
20
488.7500000
40
0.8000000
1
1
50
0.0
7
STANDARD
71
0
72
0
0
TEXT
8
Top_Silk
10
356.0000000
20
499.6250000
40
0.8000000
1
T
50
0.0
7
STANDARD
71
0
72
0
0
TEXT
8
Top_Silk
10
355.8750000
20
497.1250000
40
0.8000000
1
R
50
0.0
7
STANDARD
71
0
72
0
0
TEXT
8
Top_Silk
10
355.7500000
20
504.5000000
40
0.8000000
1
ISP
50
90.0
7
STANDARD
71
0
72
0
0
TEXT
8
Top_Silk
10
355.8750000
20
507.2500000
40
0.8000000
1
D
50
0.0
7
STANDARD
71
0
72
0
0
TEXT
8
Top_Silk
10
355.8750000
20
504.6250000
40
0.8000000
1
C
50
0.0
7
STANDARD
71
0
72
0
0
TEXT
8
Top_Silk
10
355.8750000
20
515.7500000
40
0.8000000
1
1
50
0.0
7
STANDARD
71
0
72
0
0
TEXT
8
Top_Silk
10
355.7500000
20
514.7500000
40
0.8000000
1
M
50
0.0
7
STANDARD
71
0
72
0
0
TEXT
8
Top_Silk
10
355.8750000
20
512.2500000
40
0.8000000
1
V
50
0.0
7
STANDARD
71
0
72
0
0
INSERT
8
0
2
POLY_S3_L6_10166
10
0.0000000
20
0.0000000
41
1.0000000
42
1.0000000
43
1.0000000
50
0.0000000
0
LINE
8
Top_Silk
6
CONTINUOUS
10
355.5000000
20
521.6250000
11
355.5000000
21
519.8750000
0
LINE
8
Top_Silk
6
CONTINUOUS
10
350.7500000
20
521.8750000
11
350.7500000
21
523.1250000
0
CIRCLE
8
Top_Silk
6
CONTINUOUS
10
354.3250000
20
529.8750000
40
2.5000000
0
LINE
8
Top_Silk
6
CONTINUOUS
10
260.0000000
20
532.0000000
11
260.0000000
21
536.0000000
0
TEXT
8
Top_Silk
10
276.1250000
20
494.8750000
40
0.8000000
1
HADBADGE  Iss.1
50
90.0
7
STANDARD
71
0
72
0
0
TEXT
8
Top_Silk
10
274.7500000
20
531.7500000
40
2.0320000
1
+
50
0.0
7
STANDARD
71
0
72
0
0
TEXT
8
Top_Silk
10
310.7500000
20
486.6250000
40
0.8000000
1
0V
50
0.0
7
STANDARD
71
0
72
0
0
TEXT
8
Top_Silk
10
310.7500000
20
494.3750000
40
0.8000000
1
0V
50
0.0
7
STANDARD
71
0
72
0
0
LINE
8
Top_Silk
6
CONTINUOUS
10
322.5000000
20
503.1250000
11
321.0000000
21
496.8750000
0
LINE
8
Top_Silk
6
CONTINUOUS
10
337.2500000
20
523.0000000
11
337.2500000
21
526.7500000
0
LINE
8
Top_Silk
6
CONTINUOUS
10
341.6250000
20
528.6250000
11
341.6250000
21
523.1250000
0
LINE
8
Top_Silk
6
CONTINUOUS
10
347.6250000
20
528.6250000
11
347.6250000
21
523.1250000
0
TEXT
8
Top_Silk
10
355.2500000
20
484.2500000
40
0.8000000
1
Link
50
90.0
7
STANDARD
71
0
72
0
0
TEXT
8
Top_Silk
10
356.5000000
20
484.2500000
40
0.8000000
1
5V PWR
50
90.0
7
STANDARD
71
0
72
0
0
TEXT
8
Top_Silk
10
355.8750000
20
509.7500000
40
0.8000000
1
G
50
0.0
7
STANDARD
71
0
72
0
0
TEXT
8
Top_Silk
10
356.0000000
20
494.5000000
40
0.8000000
1
V
50
0.0
7
STANDARD
71
0
72
0
0
TEXT
8
Top_Silk
10
355.7500000
20
500.1250000
40
0.8000000
1
TTL232
50
90.0
7
STANDARD
71
0
72
0
0
TEXT
8
Top_Silk
10
367.6250000
20
538.5000000
40
2.0320000
1
+
50
0.0
7
STANDARD
71
0
72
0
0
LINE
8
Top_Silk
6
CONTINUOUS
10
374.0000000
20
532.0000000
11
374.0000000
21
536.0000000
0
TEXT
8
Top_Silk
10
276.1250000
20
510.1250000
40
0.8000000
1
DESIGN : MIKESELECTRICSTUFF 2017
50
90.0
7
STANDARD
71
0
72
0
0
LINE
8
Top_Silk
6
CONTINUOUS
10
257.5000000
20
538.3750000
11
257.5000000
21
484.5000000
0
LINE
8
Top_Silk
6
CONTINUOUS
10
274.0000000
20
481.5000000
11
274.0000000
21
538.5000000
0
LINE
8
Top_Silk
6
CONTINUOUS
10
277.2500000
20
493.8750000
11
277.2500000
21
527.8750000
0
LINE
8
Top_Silk
6
CONTINUOUS
10
309.2500000
20
527.8750000
11
309.2500000
21
493.8750000
0
LINE
8
Top_Silk
6
CONTINUOUS
10
360.0000000
20
538.5000000
11
360.0000000
21
481.5000000
0
LINE
8
Top_Silk
6
CONTINUOUS
10
376.5000000
20
483.1250000
11
376.5000000
21
538.5000000
0
LINE
8
Top_Silk
6
CONTINUOUS
10
260.6250000
20
481.5000000
11
274.0000000
21
481.5000000
0
LINE
8
Top_Silk
6
CONTINUOUS
10
258.0000000
20
534.0000000
11
262.0000000
21
534.0000000
0
LINE
8
Top_Silk
6
CONTINUOUS
10
274.0000000
20
538.5000000
11
257.5000000
21
538.5000000
0
TEXT
8
Top_Silk
10
281.6250000
20
482.0000000
40
2.0320000
1
1
50
0.0
7
STANDARD
71
0
72
0
0
TEXT
8
Top_Silk
10
304.6250000
20
482.0000000
40
2.0320000
1
3
50
0.0
7
STANDARD
71
0
72
0
0
ARC
8
Top_Silk
6
CONTINUOUS
10
282.3750000
20
539.1250000
40
1.0000000
50
131.2000000
51
48.8000000
0
TEXT
8
Top_Silk
10
304.6250000
20
537.6250000
40
2.0320000
1
4
50
0.0
7
STANDARD
71
0
72
0
0
TEXT
8
Top_Silk
10
326.7500000
20
498.6250000
40
0.8000000
1
SDA
50
0.0
7
STANDARD
71
0
72
0
0
LINE
8
Top_Silk
6
CONTINUOUS
10
309.2500000
20
496.8750000
11
321.0000000
21
496.8750000
0
LINE
8
Top_Silk
6
CONTINUOUS
10
309.2500000
20
524.8750000
11
320.7500000
21
524.8750000
0
TEXT
8
Top_Silk
10
313.7500000
20
539.7500000
40
0.8000000
1
Neck interface
50
0.0
7
STANDARD
71
0
72
0
0
TEXT
8
Top_Silk
10
341.7500000
20
482.1250000
40
0.8000000
1
SCL
50
0.0
7
STANDARD
71
0
72
0
0
TEXT
8
Top_Silk
10
349.5000000
20
482.0000000
40
0.8000000
1
3V3
50
0.0
7
STANDARD
71
0
72
0
0
TEXT
8
Top_Silk
10
341.8750000
20
488.7500000
40
0.8000000
1
2V8
50
0.0
7
STANDARD
71
0
72
0
0
TEXT
8
Top_Silk
10
349.6250000
20
488.7500000
40
0.8000000
1
RC3
50
0.0
7
STANDARD
71
0
72
0
0
TEXT
8
Top_Silk
10
349.6250000
20
489.6250000
40
0.8000000
1
RX1
50
0.0
7
STANDARD
71
0
72
0
0
LINE
8
Top_Silk
6
CONTINUOUS
10
359.2500000
20
488.6250000
11
354.8750000
21
488.6250000
0
LINE
8
Top_Silk
6
CONTINUOUS
10
359.2500000
20
504.0000000
11
355.0000000
21
504.0000000
0
TEXT
8
Top_Silk
10
350.7250000
20
534.6750000
40
2.0320000
1
5
50
0.0
7
STANDARD
71
0
72
0
0
LINE
8
Top_Silk
6
CONTINUOUS
10
372.0000000
20
534.0000000
11
376.0000000
21
534.0000000
0
TEXT
8
Top_Silk
10
264.3750000
20
538.3750000
40
2.0320000
1
+
50
0.0
7
STANDARD
71
0
72
0
0
LINE
8
Top_Silk
6
CONTINUOUS
10
360.0000000
20
481.5000000
11
375.6250000
21
481.5000000
0
LINE
8
Top_Silk
6
CONTINUOUS
10
309.2500000
20
493.8750000
11
277.5000000
21
493.8750000
0
LINE
8
Top_Silk
6
CONTINUOUS
10
350.7500000
20
523.1250000
11
338.2500000
21
523.1250000
0
LINE
8
Top_Silk
6
CONTINUOUS
10
277.2500000
20
527.8750000
11
309.2500000
21
527.8750000
0
LINE
8
Top_Silk
6
CONTINUOUS
10
372.6250000
20
538.5000000
11
360.1250000
21
538.5000000
0
ENDSEC
0
EOF
