  0
SECTION
  2
HEADER
  9
$ACADVER
  1
AC1014
  9
$HANDSEED
  5
FFFF
  9
$MEASUREMENT
 70
     1
  0
ENDSEC
  0
SECTION
  2
TABLES
  0
TABLE
  2
VPORT
  5
8
330
0
100
AcDbSymbolTable
 70
     4
  0
VPORT
  5
2E
330
8
100
AcDbSymbolTableRecord
100
AcDbViewportTableRecord
  2
*ACTIVE
 70
     0
 10
0.0
 20
0.0
 11
1.0
 21
1.0
 12
210.0
 22
148.5
 13
0.0
 23
0.0
 14
10.0
 24
10.0
 15
10.0
 25
10.0
 16
0.0
 26
0.0
 36
1.0
 17
0.0
 27
0.0
 37
0.0
 40
341.0
 41
1.24
 42
50.0
 43
0.0
 44
0.0
 50
0.0
 51
0.0
 71
     0
 72
   100
 73
     1
 74
     3
 75
     0
 76
     0
 77
     0
 78
     0
  0
ENDTAB
  0
TABLE
  2
LTYPE
  5
5
330
0
100
AcDbSymbolTable
 70
     1
  0
LTYPE
  5
14
330
5
100
AcDbSymbolTableRecord
100
AcDbLinetypeTableRecord
  2
BYBLOCK
 70
     0
  3

 72
    65
 73
     0
 40
0.0
  0
LTYPE
  5
15
330
5
100
AcDbSymbolTableRecord
100
AcDbLinetypeTableRecord
  2
BYLAYER
 70
     0
  3

 72
    65
 73
     0
 40
0.0
  0
LTYPE
  5
16
330
5
100
AcDbSymbolTableRecord
100
AcDbLinetypeTableRecord
  2
CONTINUOUS
 70
     0
  3
Solid line
 72
    65
 73
     0
 40
0.0
  0
ENDTAB
  0
TABLE
  2
LAYER
  5
2
100
AcDbSymbolTable
 70
2
  0
LAYER
  5
50
100
AcDbSymbolTableRecord
100
AcDbLayerTableRecord
  2
0
 70
0
  6
CONTINUOUS
  0
LAYER
  5
51
100
AcDbSymbolTableRecord
100
AcDbLayerTableRecord
  2
Layer_1
 70
0
  6
CONTINUOUS
  0
ENDTAB
  0
TABLE
  2
STYLE
  5
3
330
0
100
AcDbSymbolTable
 70
     1
  0
STYLE
  5
11
330
3
100
AcDbSymbolTableRecord
100
AcDbTextStyleTableRecord
  2
STANDARD
 70
     0
 40
0.0
 41
1.0
 50
0.0
 71
     0
 42
2.5
  3
txt
  4

  0
ENDTAB
  0
TABLE
  2
VIEW
  5
6
330
0
100
AcDbSymbolTable
 70
     0
  0
ENDTAB
  0
TABLE
  2
UCS
  5
7
330
0
100
AcDbSymbolTable
 70
     0
  0
ENDTAB
  0
TABLE
  2
APPID
  5
9
330
0
100
AcDbSymbolTable
 70
     2
  0
APPID
  5
12
330
9
100
AcDbSymbolTableRecord
100
AcDbRegAppTableRecord
  2
ACAD
 70
     0
  0
ENDTAB
  0
TABLE
  2
DIMSTYLE
  5
A
330
0
100
AcDbSymbolTable
 70
     1
  0
DIMSTYLE
105
27
330
A
100
AcDbSymbolTableRecord
100
AcDbDimStyleTableRecord
  2
ISO-25
 70
     0
  3

  4

  5

  6

  7

 40
1.0
 41
2.5
 42
0.625
 43
3.75
 44
1.25
 45
0.0
 46
0.0
 47
0.0
 48
0.0
140
2.5
141
2.5
142
0.0
143
0.03937007874016
144
1.0
145
0.0
146
1.0
147
0.625
 71
     0
 72
     0
 73
     0
 74
     0
 75
     0
 76
     0
 77
     1
 78
     8
170
     0
171
     3
172
     1
173
     0
174
     0
175
     0
176
     0
177
     0
178
     0
270
     2
271
     2
272
     2
273
     2
274
     3
340
11
275
     0
280
     0
281
     0
282
     0
283
     0
284
     8
285
     0
286
     0
287
     3
288
     0
  0
ENDTAB
  0
TABLE
  2
BLOCK_RECORD
  5
1
330
0
100
AcDbSymbolTable
 70
     1
  0
BLOCK_RECORD
  5
1F
330
1
100
AcDbSymbolTableRecord
100
AcDbBlockTableRecord
  2
*MODEL_SPACE
  0
BLOCK_RECORD
  5
1B
330
1
100
AcDbSymbolTableRecord
100
AcDbBlockTableRecord
  2
*PAPER_SPACE
  0
ENDTAB
  0
ENDSEC
  0
SECTION
  2
BLOCKS
  0
BLOCK
  5
20
330
1F
100
AcDbEntity
  8
0
100
AcDbBlockBegin
  2
*MODEL_SPACE
 70
     0
 10
0.0
 20
0.0
 30
0.0
  3
*MODEL_SPACE
  1

  0
ENDBLK
  5
21
330
1F
100
AcDbEntity
  8
0
100
AcDbBlockEnd
  0
BLOCK
  5
1C
330
1B
100
AcDbEntity
 67
     1
  8
0
100
AcDbBlockBegin
  2
*PAPER_SPACE
  1

  0
ENDBLK
  5
1D
330
1B
100
AcDbEntity
 67
     1
  8
0
100
AcDbBlockEnd
  0
ENDSEC
  0
SECTION
  2
ENTITIES
  0
LWPOLYLINE
  5
100
100
AcDbEntity
  8
Layer_1
 62
7
100
AcDbPolyline
 90
11
 70
0
 10
19.259462
 20
9.613986
 30
0.0
 10
19.259462
 20
9.352422
 30
0.0
 10
19.259462
 20
9.090266
 30
0.0
 10
19.259462
 20
8.828505
 30
0.0
 10
19.275447
 20
8.841770
 30
0.0
 10
19.442192
 20
9.047594
 30
0.0
 10
19.561221
 20
9.284068
 30
0.0
 10
19.617201
 20
9.542922
 30
0.0
 10
19.437139
 20
9.573374
 30
0.0
 10
19.259462
 20
9.614014
 30
0.0
 10
19.259462
 20
9.614014
 30
0.0
  0
LWPOLYLINE
  5
101
100
AcDbEntity
  8
Layer_1
 62
7
100
AcDbPolyline
 90
10
 70
0
 10
20.711914
 20
9.614014
 30
0.0
 10
20.552076
 20
9.576817
 30
0.0
 10
20.390556
 20
9.547890
 30
0.0
 10
20.442449
 20
9.297812
 30
0.0
 10
20.554677
 20
9.068027
 30
0.0
 10
20.711914
 20
8.866012
 30
0.0
 10
20.711914
 20
9.115074
 30
0.0
 10
20.711914
 20
9.364756
 30
0.0
 10
20.711914
 20
9.614014
 30
0.0
 10
20.711914
 20
9.614014
 30
0.0
  0
LWPOLYLINE
  5
102
100
AcDbEntity
  8
Layer_1
 62
7
100
AcDbPolyline
 90
18
 70
0
 10
21.583385
 20
9.980564
 30
0.0
 10
21.396825
 20
9.873884
 30
0.0
 10
21.202094
 20
9.782755
 30
0.0
 10
21.001853
 20
9.704946
 30
0.0
 10
21.001853
 20
9.439093
 30
0.0
 10
21.001853
 20
9.172929
 30
0.0
 10
21.001853
 20
8.906483
 30
0.0
 10
21.001853
 20
8.640545
 30
0.0
 10
21.229468
 20
8.537478
 30
0.0
 10
21.474796
 20
8.495031
 30
0.0
 10
21.583385
 20
8.495031
 30
0.0
 10
21.583385
 20
8.742851
 30
0.0
 10
21.583385
 20
8.990190
 30
0.0
 10
21.583385
 20
9.238038
 30
0.0
 10
21.583385
 20
9.485547
 30
0.0
 10
21.583385
 20
9.732914
 30
0.0
 10
21.583385
 20
9.980564
 30
0.0
 10
21.583385
 20
9.980564
 30
0.0
  0
LWPOLYLINE
  5
103
100
AcDbEntity
  8
Layer_1
 62
7
100
AcDbPolyline
 90
20
 70
0
 10
34.071718
 20
13.021594
 30
0.0
 10
34.071718
 20
12.773040
 30
0.0
 10
34.071718
 20
12.524346
 30
0.0
 10
34.071718
 20
12.275483
 30
0.0
 10
34.071718
 20
12.026817
 30
0.0
 10
34.071718
 20
11.777925
 30
0.0
 10
34.071718
 20
11.528920
 30
0.0
 10
34.071718
 20
11.280311
 30
0.0
 10
34.172996
 20
11.517462
 30
0.0
 10
34.268356
 20
11.757182
 30
0.0
 10
34.357587
 20
11.998961
 30
0.0
 10
34.440650
 20
12.242745
 30
0.0
 10
34.517621
 20
12.488814
 30
0.0
 10
34.588334
 20
12.736775
 30
0.0
 10
34.652701
 20
12.986316
 30
0.0
 10
34.652701
 20
13.021594
 30
0.0
 10
34.459243
 20
13.021594
 30
0.0
 10
34.265322
 20
13.021594
 30
0.0
 10
34.071718
 20
13.021594
 30
0.0
 10
34.071718
 20
13.021594
 30
0.0
  0
LWPOLYLINE
  5
104
100
AcDbEntity
  8
Layer_1
 62
7
100
AcDbPolyline
 90
31
 70
0
 10
33.200247
 20
13.021594
 30
0.0
 10
33.200247
 20
12.744508
 30
0.0
 10
33.200247
 20
12.467450
 30
0.0
 10
33.200247
 20
12.190393
 30
0.0
 10
33.200247
 20
11.913279
 30
0.0
 10
33.200247
 20
11.636165
 30
0.0
 10
33.200247
 20
11.359107
 30
0.0
 10
33.200247
 20
11.081965
 30
0.0
 10
33.200247
 20
10.804738
 30
0.0
 10
33.200247
 20
10.527426
 30
0.0
 10
33.200247
 20
10.250143
 30
0.0
 10
33.200247
 20
9.972860
 30
0.0
 10
33.200247
 20
9.696113
 30
0.0
 10
33.325435
 20
9.887036
 30
0.0
 10
33.445887
 20
10.080669
 30
0.0
 10
33.561971
 20
10.277067
 30
0.0
 10
33.673587
 20
10.475667
 30
0.0
 10
33.781230
 20
10.676750
 30
0.0
 10
33.781230
 20
10.937213
 30
0.0
 10
33.781230
 20
11.197535
 30
0.0
 10
33.781230
 20
11.458365
 30
0.0
 10
33.781230
 20
11.718715
 30
0.0
 10
33.781230
 20
11.979319
 30
0.0
 10
33.781230
 20
12.239923
 30
0.0
 10
33.781230
 20
12.500357
 30
0.0
 10
33.781230
 20
12.761102
 30
0.0
 10
33.781230
 20
13.021594
 30
0.0
 10
33.587772
 20
13.021594
 30
0.0
 10
33.393851
 20
13.021594
 30
0.0
 10
33.200247
 20
13.021594
 30
0.0
 10
33.200247
 20
13.021594
 30
0.0
  0
LWPOLYLINE
  5
105
100
AcDbEntity
  8
Layer_1
 62
7
100
AcDbPolyline
 90
44
 70
0
 10
21.873325
 20
13.021594
 30
0.0
 10
21.873325
 20
12.925130
 30
0.0
 10
21.973542
 20
12.672964
 30
0.0
 10
22.064179
 20
12.417102
 30
0.0
 10
22.146113
 20
12.158248
 30
0.0
 10
22.219329
 20
11.896599
 30
0.0
 10
22.282520
 20
11.632383
 30
0.0
 10
22.331796
 20
11.365288
 30
0.0
 10
22.351227
 20
11.095116
 30
0.0
 10
22.305620
 20
10.838718
 30
0.0
 10
22.203076
 20
10.599450
 30
0.0
 10
22.054764
 20
10.385045
 30
0.0
 10
21.873323
 20
10.197734
 30
0.0
 10
21.873323
 20
9.954685
 30
0.0
 10
21.873323
 20
9.711494
 30
0.0
 10
21.873323
 20
9.468134
 30
0.0
 10
21.873323
 20
9.224999
 30
0.0
 10
21.873323
 20
8.981611
 30
0.0
 10
21.873323
 20
8.738138
 30
0.0
 10
21.873323
 20
8.495031
 30
0.0
 10
22.066781
 20
8.495031
 30
0.0
 10
22.260701
 20
8.495031
 30
0.0
 10
22.454304
 20
8.495031
 30
0.0
 10
22.454304
 20
8.761280
 30
0.0
 10
22.454304
 20
9.027556
 30
0.0
 10
22.454304
 20
9.293974
 30
0.0
 10
22.454304
 20
9.560448
 30
0.0
 10
22.454304
 20
9.826640
 30
0.0
 10
22.454304
 20
10.092776
 30
0.0
 10
22.454304
 20
10.358996
 30
0.0
 10
22.454304
 20
10.625019
 30
0.0
 10
22.454304
 20
10.891070
 30
0.0
 10
22.454304
 20
11.157657
 30
0.0
 10
22.454304
 20
11.423990
 30
0.0
 10
22.454304
 20
11.690408
 30
0.0
 10
22.454304
 20
11.956684
 30
0.0
 10
22.454304
 20
12.222989
 30
0.0
 10
22.454304
 20
12.489125
 30
0.0
 10
22.454304
 20
12.755430
 30
0.0
 10
22.454304
 20
13.021594
 30
0.0
 10
22.260846
 20
13.021594
 30
0.0
 10
22.066926
 20
13.021594
 30
0.0
 10
21.873323
 20
13.021594
 30
0.0
 10
21.873323
 20
13.021594
 30
0.0
  0
LWPOLYLINE
  5
106
100
AcDbEntity
  8
Layer_1
 62
7
100
AcDbPolyline
 90
44
 70
0
 10
17.516519
 20
13.021594
 30
0.0
 10
17.516519
 20
12.755345
 30
0.0
 10
17.516519
 20
12.489068
 30
0.0
 10
17.516519
 20
12.222651
 30
0.0
 10
17.516519
 20
11.956176
 30
0.0
 10
17.516519
 20
11.689984
 30
0.0
 10
17.516519
 20
11.423849
 30
0.0
 10
17.516519
 20
11.157629
 30
0.0
 10
17.516519
 20
10.891606
 30
0.0
 10
17.516519
 20
10.625555
 30
0.0
 10
17.516519
 20
10.358968
 30
0.0
 10
17.516519
 20
10.092635
 30
0.0
 10
17.516519
 20
9.826217
 30
0.0
 10
17.516519
 20
9.559940
 30
0.0
 10
17.516519
 20
9.293636
 30
0.0
 10
17.516519
 20
9.027500
 30
0.0
 10
17.516519
 20
8.761195
 30
0.0
 10
17.516519
 20
8.495031
 30
0.0
 10
17.710161
 20
8.495031
 30
0.0
 10
17.904264
 20
8.495031
 30
0.0
 10
18.098051
 20
8.495031
 30
0.0
 10
18.098051
 20
8.738166
 30
0.0
 10
18.098051
 20
8.981413
 30
0.0
 10
18.098051
 20
9.224858
 30
0.0
 10
18.098051
 20
9.468077
 30
0.0
 10
18.098051
 20
9.711550
 30
0.0
 10
18.098051
 20
9.955108
 30
0.0
 10
18.098051
 20
10.198271
 30
0.0
 10
17.916713
 20
10.385638
 30
0.0
 10
17.768539
 20
10.600042
 30
0.0
 10
17.666126
 20
10.839310
 30
0.0
 10
17.620699
 20
11.095116
 30
0.0
 10
17.640090
 20
11.365485
 30
0.0
 10
17.689249
 20
11.632468
 30
0.0
 10
17.752239
 20
11.896317
 30
0.0
 10
17.825377
 20
12.158078
 30
0.0
 10
17.907201
 20
12.416876
 30
0.0
 10
17.997802
 20
12.672823
 30
0.0
 10
18.098051
 20
12.925130
 30
0.0
 10
18.098051
 20
13.021594
 30
0.0
 10
17.904410
 20
13.021594
 30
0.0
 10
17.710306
 20
13.021594
 30
0.0
 10
17.516519
 20
13.021594
 30
0.0
 10
17.516519
 20
13.021594
 30
0.0
  0
LWPOLYLINE
  5
107
100
AcDbEntity
  8
Layer_1
 62
7
100
AcDbPolyline
 90
18
 70
0
 10
18.387991
 20
9.980564
 30
0.0
 10
18.387991
 20
9.732745
 30
0.0
 10
18.387991
 20
9.485406
 30
0.0
 10
18.387991
 20
9.237558
 30
0.0
 10
18.387991
 20
8.990049
 30
0.0
 10
18.387991
 20
8.742681
 30
0.0
 10
18.387991
 20
8.495031
 30
0.0
 10
18.533512
 20
8.495031
 30
0.0
 10
18.758711
 20
8.530874
 30
0.0
 10
18.969523
 20
8.619040
 30
0.0
 10
18.969523
 20
8.890396
 30
0.0
 10
18.969523
 20
9.162092
 30
0.0
 10
18.969523
 20
9.434041
 30
0.0
 10
18.969523
 20
9.705482
 30
0.0
 10
18.769353
 20
9.783178
 30
0.0
 10
18.574622
 20
9.874026
 30
0.0
 10
18.387991
 20
9.980564
 30
0.0
 10
18.387991
 20
9.980564
 30
0.0
  0
LWPOLYLINE
  5
108
100
AcDbEntity
  8
Layer_1
 62
7
100
AcDbPolyline
 90
975
 70
0
 10
6.189596
 20
13.021594
 30
0.0
 10
6.189596
 20
12.754950
 30
0.0
 10
6.189596
 20
12.488448
 30
0.0
 10
6.189596
 20
12.221409
 30
0.0
 10
6.189596
 20
11.954878
 30
0.0
 10
6.189596
 20
11.688094
 30
0.0
 10
6.189596
 20
11.421309
 30
0.0
 10
6.189596
 20
11.154694
 30
0.0
 10
6.189596
 20
10.887740
 30
0.0
 10
6.189596
 20
10.621068
 30
0.0
 10
6.323694
 20
10.376325
 30
0.0
 10
6.464253
 20
10.135561
 30
0.0
 10
6.611315
 20
9.898692
 30
0.0
 10
6.764908
 20
9.665633
 30
0.0
 10
6.924694
 20
9.436948
 30
0.0
 10
7.090652
 20
9.212638
 30
0.0
 10
7.262386
 20
8.993182
 30
0.0
 10
7.440177
 20
8.778270
 30
0.0
 10
7.623567
 20
8.568381
 30
0.0
 10
7.812774
 20
8.363318
 30
0.0
 10
8.007261
 20
8.163646
 30
0.0
 10
8.207163
 20
7.969223
 30
0.0
 10
8.412207
 20
7.780332
 30
0.0
 10
8.622414
 20
7.596944
 30
0.0
 10
8.837396
 20
7.419398
 30
0.0
 10
9.057042
 20
7.247778
 30
0.0
 10
9.281483
 20
7.082029
 30
0.0
 10
9.510101
 20
6.922574
 30
0.0
 10
9.743145
 20
6.769271
 30
0.0
 10
9.980100
 20
6.622430
 30
0.0
 10
10.220937
 20
6.482138
 30
0.0
 10
10.465450
 20
6.348449
 30
0.0
 10
10.713788
 20
6.221308
 30
0.0
 10
10.965313
 20
6.101110
 30
0.0
 10
11.220183
 20
5.987713
 30
0.0
 10
11.477713
 20
5.881456
 30
0.0
 10
11.738260
 20
5.782170
 30
0.0
 10
12.001598
 20
5.689968
 30
0.0
 10
12.266924
 20
5.605132
 30
0.0
 10
12.535006
 20
5.527380
 30
0.0
 10
12.804744
 20
5.457078
 30
0.0
 10
13.076463
 20
5.394086
 30
0.0
 10
13.349727
 20
5.338517
 30
0.0
 10
13.624254
 20
5.290370
 30
0.0
 10
13.900173
 20
5.249645
 30
0.0
 10
14.176899
 20
5.216371
 30
0.0
 10
14.454316
 20
5.190689
 30
0.0
 10
14.732728
 20
5.172344
 30
0.0
 10
15.011588
 20
5.161338
 30
0.0
 10
15.290160
 20
5.157669
 30
0.0
 10
15.567756
 20
5.152307
 30
0.0
 10
15.844833
 20
5.137067
 30
0.0
 10
16.121432
 20
5.113360
 30
0.0
 10
16.397194
 20
5.082654
 30
0.0
 10
16.672257
 20
5.046219
 30
0.0
 10
16.946562
 20
5.005438
 30
0.0
 10
17.220467
 20
4.961496
 30
0.0
 10
17.494314
 20
4.915692
 30
0.0
 10
17.768023
 20
4.869322
 30
0.0
 10
18.041533
 20
4.823631
 30
0.0
 10
18.315419
 20
4.779858
 30
0.0
 10
18.589595
 20
4.739274
 30
0.0
 10
18.864887
 20
4.703037
 30
0.0
 10
19.140408
 20
4.672614
 30
0.0
 10
19.416679
 20
4.649189
 30
0.0
 10
19.693693
 20
4.634231
 30
0.0
 10
19.971081
 20
4.628869
 30
0.0
 10
20.248613
 20
4.634231
 30
0.0
 10
20.525630
 20
4.649189
 30
0.0
 10
20.802172
 20
4.672614
 30
0.0
 10
21.077877
 20
4.703094
 30
0.0
 10
21.352886
 20
4.739274
 30
0.0
 10
21.627137
 20
4.779886
 30
0.0
 10
21.901362
 20
4.823744
 30
0.0
 10
22.174793
 20
4.869407
 30
0.0
 10
22.448162
 20
4.915720
 30
0.0
 10
22.721948
 20
4.961524
 30
0.0
 10
22.996050
 20
5.005466
 30
0.0
 10
23.270382
 20
5.046276
 30
0.0
 10
23.545437
 20
5.082682
 30
0.0
 10
23.821358
 20
5.113388
 30
0.0
 10
24.097824
 20
5.137095
 30
0.0
 10
24.374828
 20
5.152335
 30
0.0
 10
24.652001
 20
5.157697
 30
0.0
 10
24.931767
 20
5.161366
 30
0.0
 10
25.211158
 20
5.172373
 30
0.0
 10
25.490143
 20
5.190999
 30
0.0
 10
25.768625
 20
5.216964
 30
0.0
 10
26.046451
 20
5.250435
 30
0.0
 10
26.322868
 20
5.291358
 30
0.0
 10
26.598193
 20
5.339730
 30
0.0
 10
26.872112
 20
5.395582
 30
0.0
 10
27.144742
 20
5.458941
 30
0.0
 10
27.415165
 20
5.529610
 30
0.0
 10
27.683816
 20
5.607700
 30
0.0
 10
27.950111
 20
5.693073
 30
0.0
 10
28.214228
 20
5.785783
 30
0.0
 10
28.475429
 20
5.885576
 30
0.0
 10
28.734024
 20
5.992567
 30
0.0
 10
28.989438
 20
6.106528
 30
0.0
 10
29.241651
 20
6.227404
 30
0.0
 10
29.490453
 20
6.355138
 30
0.0
 10
29.735453
 20
6.489476
 30
0.0
 10
29.976868
 20
6.630530
 30
0.0
 10
30.214330
 20
6.778132
 30
0.0
 10
30.447880
 20
6.932254
 30
0.0
 10
30.676963
 20
7.092556
 30
0.0
 10
30.901812
 20
7.259152
 30
0.0
 10
31.121728
 20
7.431590
 30
0.0
 10
31.337061
 20
7.610039
 30
0.0
 10
31.547494
 20
7.794330
 30
0.0
 10
31.752743
 20
7.984153
 30
0.0
 10
31.952938
 20
8.179620
 30
0.0
 10
32.147603
 20
8.380336
 30
0.0
 10
32.336830
 20
8.586302
 30
0.0
 10
32.520204
 20
8.797122
 30
0.0
 10
32.698001
 20
9.013107
 30
0.0
 10
32.869615
 20
9.233494
 30
0.0
 10
33.035186
 20
9.458482
 30
0.0
 10
33.194735
 20
9.688098
 30
0.0
 10
33.052741
 20
9.753460
 30
0.0
 10
32.910309
 20
9.817101
 30
0.0
 10
32.910309
 20
10.084140
 30
0.0
 10
32.910309
 20
10.351489
 30
0.0
 10
32.910309
 20
10.618528
 30
0.0
 10
32.910309
 20
10.885538
 30
0.0
 10
32.910309
 20
11.152605
 30
0.0
 10
32.910309
 20
11.419559
 30
0.0
 10
32.910309
 20
11.686598
 30
0.0
 10
32.910309
 20
11.953693
 30
0.0
 10
32.910309
 20
12.220929
 30
0.0
 10
32.910309
 20
12.488052
 30
0.0
 10
32.910309
 20
12.755232
 30
0.0
 10
32.910309
 20
13.021848
 30
0.0
 10
32.716668
 20
13.021848
 30
0.0
 10
32.522564
 20
13.021848
 30
0.0
 10
32.328776
 20
13.021848
 30
0.0
 10
32.328776
 20
12.752043
 30
0.0
 10
32.328776
 20
12.482521
 30
0.0
 10
32.328776
 20
12.212829
 30
0.0
 10
32.328776
 20
11.943166
 30
0.0
 10
32.328776
 20
11.673644
 30
0.0
 10
32.328776
 20
11.403726
 30
0.0
 10
32.328776
 20
11.134148
 30
0.0
 10
32.328776
 20
10.864174
 30
0.0
 10
32.328776
 20
10.594567
 30
0.0
 10
32.328776
 20
10.324932
 30
0.0
 10
32.328776
 20
10.055212
 30
0.0
 10
32.184416
 20
10.107875
 30
0.0
 10
32.038838
 20
10.157744
 30
0.0
 10
32.038838
 20
10.418235
 30
0.0
 10
32.038838
 20
10.678444
 30
0.0
 10
32.038838
 20
10.938794
 30
0.0
 10
32.038838
 20
11.199144
 30
0.0
 10
32.038838
 20
11.459352
 30
0.0
 10
32.038838
 20
11.719956
 30
0.0
 10
32.038838
 20
11.980194
 30
0.0
 10
32.038838
 20
12.240826
 30
0.0
 10
32.038838
 20
12.501148
 30
0.0
 10
32.038838
 20
12.761469
 30
0.0
 10
32.038838
 20
13.021848
 30
0.0
 10
31.845196
 20
13.021848
 30
0.0
 10
31.651092
 20
13.021848
 30
0.0
 10
31.457305
 20
13.021848
 30
0.0
 10
31.457305
 20
12.750152
 30
0.0
 10
31.457305
 20
12.478598
 30
0.0
 10
31.457305
 20
12.207157
 30
0.0
 10
31.457305
 20
11.935546
 30
0.0
 10
31.457305
 20
11.663512
 30
0.0
 10
31.457305
 20
11.391506
 30
0.0
 10
31.457305
 20
11.119924
 30
0.0
 10
31.457305
 20
10.848341
 30
0.0
 10
31.457305
 20
10.576448
 30
0.0
 10
31.457305
 20
10.304922
 30
0.0
 10
31.258868
 20
10.337434
 30
0.0
 10
31.167366
 20
10.342514
 30
0.0
 10
31.167366
 20
10.610456
 30
0.0
 10
31.167366
 20
10.878257
 30
0.0
 10
31.167366
 20
11.145973
 30
0.0
 10
31.167366
 20
11.413830
 30
0.0
 10
31.167366
 20
11.681574
 30
0.0
 10
31.167366
 20
11.949883
 30
0.0
 10
31.167366
 20
12.217825
 30
0.0
 10
31.167366
 20
12.485766
 30
0.0
 10
31.167366
 20
12.754047
 30
0.0
 10
31.167366
 20
13.021960
 30
0.0
 10
30.973909
 20
13.021960
 30
0.0
 10
30.779988
 20
13.021960
 30
0.0
 10
30.586384
 20
13.021960
 30
0.0
 10
30.586384
 20
12.754019
 30
0.0
 10
30.586384
 20
12.486218
 30
0.0
 10
30.586384
 20
12.218502
 30
0.0
 10
30.586384
 20
11.950645
 30
0.0
 10
30.586384
 20
11.682901
 30
0.0
 10
30.586384
 20
11.414592
 30
0.0
 10
30.586384
 20
11.146650
 30
0.0
 10
30.586384
 20
10.878708
 30
0.0
 10
30.586384
 20
10.610428
 30
0.0
 10
30.586384
 20
10.342514
 30
0.0
 10
30.441051
 20
10.332919
 30
0.0
 10
30.295895
 20
10.321066
 30
0.0
 10
30.295895
 20
10.591152
 30
0.0
 10
30.295895
 20
10.861126
 30
0.0
 10
30.295895
 20
11.130987
 30
0.0
 10
30.295895
 20
11.400961
 30
0.0
 10
30.295895
 20
11.670878
 30
0.0
 10
30.295895
 20
11.941332
 30
0.0
 10
30.295895
 20
12.211418
 30
0.0
 10
30.295895
 20
12.481533
 30
0.0
 10
30.295895
 20
12.751958
 30
0.0
 10
30.295895
 20
13.022017
 30
0.0
 10
30.102621
 20
13.022017
 30
0.0
 10
29.908884
 20
13.022017
 30
0.0
 10
29.715466
 20
13.022017
 30
0.0
 10
29.715466
 20
12.746455
 30
0.0
 10
29.715466
 20
12.471063
 30
0.0
 10
29.715466
 20
12.195755
 30
0.0
 10
29.715466
 20
11.920306
 30
0.0
 10
29.715466
 20
11.644660
 30
0.0
 10
29.715466
 20
11.368787
 30
0.0
 10
29.715466
 20
11.093282
 30
0.0
 10
29.715466
 20
10.817777
 30
0.0
 10
29.715466
 20
10.541961
 30
0.0
 10
29.715466
 20
10.266512
 30
0.0
 10
29.570299
 20
10.250143
 30
0.0
 10
29.424974
 20
10.233492
 30
0.0
 10
29.424974
 20
10.491330
 30
0.0
 10
29.424974
 20
10.749027
 30
0.0
 10
29.424974
 20
11.007204
 30
0.0
 10
29.424974
 20
11.264958
 30
0.0
 10
29.424974
 20
11.522909
 30
0.0
 10
29.424974
 20
11.780888
 30
0.0
 10
29.424974
 20
12.038670
 30
0.0
 10
29.424974
 20
12.296790
 30
0.0
 10
29.424974
 20
12.554657
 30
0.0
 10
29.259107
 20
12.366302
 30
0.0
 10
29.063518
 20
12.209160
 30
0.0
 10
28.843992
 20
12.087777
 30
0.0
 10
28.843992
 20
11.814501
 30
0.0
 10
28.843992
 20
11.541084
 30
0.0
 10
28.843992
 20
11.267498
 30
0.0
 10
28.843992
 20
10.994109
 30
0.0
 10
28.843992
 20
10.720466
 30
0.0
 10
28.843992
 20
10.446739
 30
0.0
 10
28.843992
 20
10.173407
 30
0.0
 10
28.699011
 20
10.159860
 30
0.0
 10
28.553503
 20
10.148007
 30
0.0
 10
28.553503
 20
10.411348
 30
0.0
 10
28.553503
 20
10.674859
 30
0.0
 10
28.553503
 20
10.938540
 30
0.0
 10
28.553503
 20
11.201994
 30
0.0
 10
28.553503
 20
11.465702
 30
0.0
 10
28.553503
 20
11.729524
 30
0.0
 10
28.553503
 20
11.992922
 30
0.0
 10
28.403304
 20
11.968933
 30
0.0
 10
28.251438
 20
11.960748
 30
0.0
 10
27.972522
 20
11.988971
 30
0.0
 10
27.972522
 20
11.723654
 30
0.0
 10
27.972522
 20
11.458167
 30
0.0
 10
27.972522
 20
11.192540
 30
0.0
 10
27.972522
 20
10.927081
 30
0.0
 10
27.972522
 20
10.661426
 30
0.0
 10
27.972522
 20
10.395629
 30
0.0
 10
27.972522
 20
10.130255
 30
0.0
 10
27.827079
 20
10.135053
 30
0.0
 10
27.682031
 20
10.143520
 30
0.0
 10
27.682031
 20
10.419618
 30
0.0
 10
27.682031
 20
10.695885
 30
0.0
 10
27.682031
 20
10.972322
 30
0.0
 10
27.682031
 20
11.248532
 30
0.0
 10
27.682031
 20
11.524997
 30
0.0
 10
27.682031
 20
11.801575
 30
0.0
 10
27.682031
 20
12.077730
 30
0.0
 10
27.464282
 20
12.192735
 30
0.0
 10
27.268946
 20
12.342652
 30
0.0
 10
27.101602
 20
12.523133
 30
0.0
 10
27.101602
 20
12.269387
 30
0.0
 10
27.101602
 20
12.015810
 30
0.0
 10
27.101602
 20
11.761725
 30
0.0
 10
27.101602
 20
11.508092
 30
0.0
 10
27.101602
 20
11.254233
 30
0.0
 10
27.101602
 20
11.000346
 30
0.0
 10
27.101602
 20
10.746657
 30
0.0
 10
27.101602
 20
10.492628
 30
0.0
 10
27.101602
 20
10.238882
 30
0.0
 10
26.954611
 20
10.281526
 30
0.0
 10
26.810560
 20
10.332580
 30
0.0
 10
26.810560
 20
10.601510
 30
0.0
 10
26.810560
 20
10.870326
 30
0.0
 10
26.810560
 20
11.139030
 30
0.0
 10
26.810560
 20
11.407847
 30
0.0
 10
26.810560
 20
11.676607
 30
0.0
 10
26.810560
 20
11.945904
 30
0.0
 10
26.810560
 20
12.214833
 30
0.0
 10
26.810560
 20
12.483791
 30
0.0
 10
26.810560
 20
12.753059
 30
0.0
 10
26.810560
 20
13.021960
 30
0.0
 10
26.617285
 20
13.021960
 30
0.0
 10
26.423550
 20
13.021960
 30
0.0
 10
26.230130
 20
13.021960
 30
0.0
 10
26.230130
 20
12.759522
 30
0.0
 10
26.230130
 20
12.497253
 30
0.0
 10
26.230130
 20
12.234448
 30
0.0
 10
26.230130
 20
11.972122
 30
0.0
 10
26.230130
 20
11.709571
 30
0.0
 10
26.230130
 20
11.447019
 30
0.0
 10
26.230130
 20
11.184637
 30
0.0
 10
26.230130
 20
10.921888
 30
0.0
 10
26.230130
 20
10.659450
 30
0.0
 10
26.081407
 20
10.777278
 30
0.0
 10
25.939640
 20
10.903092
 30
0.0
 10
25.939640
 20
11.168240
 30
0.0
 10
25.939640
 20
11.433303
 30
0.0
 10
25.939640
 20
11.697971
 30
0.0
 10
25.939640
 20
11.962837
 30
0.0
 10
25.939640
 20
12.227561
 30
0.0
 10
25.939640
 20
12.492455
 30
0.0
 10
25.939640
 20
12.756954
 30
0.0
 10
25.939640
 20
13.021960
 30
0.0
 10
25.746181
 20
13.021960
 30
0.0
 10
25.552262
 20
13.021960
 30
0.0
 10
25.358659
 20
13.021960
 30
0.0
 10
25.358659
 20
12.784922
 30
0.0
 10
25.358659
 20
12.548307
 30
0.0
 10
25.358659
 20
12.311240
 30
0.0
 10
25.358659
 20
12.074456
 30
0.0
 10
25.358659
 20
11.837841
 30
0.0
 10
25.358659
 20
11.600943
 30
0.0
 10
25.254048
 20
11.766692
 30
0.0
 10
25.157184
 20
11.936872
 30
0.0
 10
25.068168
 20
12.111370
 30
0.0
 10
25.068168
 20
12.338813
 30
0.0
 10
25.068168
 20
12.566510
 30
0.0
 10
25.068168
 20
12.794433
 30
0.0
 10
25.068168
 20
13.021960
 30
0.0
 10
24.810091
 20
13.021960
 30
0.0
 10
24.552152
 20
13.021960
 30
0.0
 10
24.293711
 20
13.021960
 30
0.0
 10
24.035733
 20
13.021960
 30
0.0
 10
23.777526
 20
13.021960
 30
0.0
 10
23.519309
 20
13.021960
 30
0.0
 10
23.261273
 20
13.021960
 30
0.0
 10
23.002900
 20
13.021960
 30
0.0
 10
22.744796
 20
13.021960
 30
0.0
 10
22.744796
 20
12.755712
 30
0.0
 10
22.744796
 20
12.489435
 30
0.0
 10
22.744796
 20
12.223018
 30
0.0
 10
22.744796
 20
11.956543
 30
0.0
 10
22.744796
 20
11.690351
 30
0.0
 10
22.744796
 20
11.424216
 30
0.0
 10
22.744796
 20
11.157996
 30
0.0
 10
22.744796
 20
10.891973
 30
0.0
 10
22.744796
 20
10.625922
 30
0.0
 10
22.744796
 20
10.359335
 30
0.0
 10
22.744796
 20
10.093002
 30
0.0
 10
22.744796
 20
9.826584
 30
0.0
 10
22.744796
 20
9.560307
 30
0.0
 10
22.744796
 20
9.294002
 30
0.0
 10
22.744796
 20
9.027867
 30
0.0
 10
22.744796
 20
8.761562
 30
0.0
 10
22.744796
 20
8.495398
 30
0.0
 10
22.938071
 20
8.495398
 30
0.0
 10
23.131806
 20
8.495398
 30
0.0
 10
23.325226
 20
8.495398
 30
0.0
 10
23.325226
 20
8.765005
 30
0.0
 10
23.325226
 20
9.034725
 30
0.0
 10
23.325226
 20
9.304416
 30
0.0
 10
23.325226
 20
9.574164
 30
0.0
 10
23.325226
 20
9.844082
 30
0.0
 10
23.325226
 20
10.113519
 30
0.0
 10
23.325226
 20
10.383042
 30
0.0
 10
23.325226
 20
10.652507
 30
0.0
 10
23.325226
 20
10.922312
 30
0.0
 10
23.325226
 20
11.191862
 30
0.0
 10
23.325226
 20
11.461638
 30
0.0
 10
23.325226
 20
11.731584
 30
0.0
 10
23.325226
 20
12.000852
 30
0.0
 10
23.325226
 20
12.270657
 30
0.0
 10
23.419727
 20
12.037795
 30
0.0
 10
23.516616
 20
11.805978
 30
0.0
 10
23.616268
 20
11.575035
 30
0.0
 10
23.616268
 20
11.294930
 30
0.0
 10
23.616268
 20
11.015163
 30
0.0
 10
23.616268
 20
10.735198
 30
0.0
 10
23.616268
 20
10.455262
 30
0.0
 10
23.616268
 20
10.175467
 30
0.0
 10
23.616268
 20
9.895277
 30
0.0
 10
23.616268
 20
9.615425
 30
0.0
 10
23.616268
 20
9.335179
 30
0.0
 10
23.616268
 20
9.055299
 30
0.0
 10
23.616268
 20
8.775391
 30
0.0
 10
23.616268
 20
8.495398
 30
0.0
 10
23.809542
 20
8.495398
 30
0.0
 10
24.003277
 20
8.495398
 30
0.0
 10
24.196697
 20
8.495398
 30
0.0
 10
24.196697
 20
8.757300
 30
0.0
 10
24.196697
 20
9.019118
 30
0.0
 10
24.196697
 20
9.280569
 30
0.0
 10
24.196697
 20
9.542189
 30
0.0
 10
24.196697
 20
9.803696
 30
0.0
 10
24.196697
 20
10.065344
 30
0.0
 10
24.196697
 20
10.326597
 30
0.0
 10
24.196697
 20
10.588358
 30
0.0
 10
24.285443
 20
10.496297
 30
0.0
 10
24.429310
 20
10.385497
 30
0.0
 10
24.487188
 20
10.362355
 30
0.0
 10
24.487188
 20
10.095852
 30
0.0
 10
24.487188
 20
9.829209
 30
0.0
 10
24.487188
 20
9.562368
 30
0.0
 10
24.487188
 20
9.295780
 30
0.0
 10
24.487188
 20
9.028911
 30
0.0
 10
24.487188
 20
8.761957
 30
0.0
 10
24.487188
 20
8.495398
 30
0.0
 10
24.680646
 20
8.495398
 30
0.0
 10
24.874565
 20
8.495398
 30
0.0
 10
25.068168
 20
8.495398
 30
0.0
 10
25.068168
 20
8.770960
 30
0.0
 10
25.068168
 20
9.046042
 30
0.0
 10
25.068168
 20
9.321632
 30
0.0
 10
25.068168
 20
9.596912
 30
0.0
 10
25.068168
 20
9.871994
 30
0.0
 10
25.068168
 20
10.147386
 30
0.0
 10
25.213521
 20
10.098928
 30
0.0
 10
25.358659
 20
10.050922
 30
0.0
 10
25.358659
 20
9.791447
 30
0.0
 10
25.358659
 20
9.532452
 30
0.0
 10
25.358659
 20
9.272920
 30
0.0
 10
25.358659
 20
9.013728
 30
0.0
 10
25.358659
 20
8.754704
 30
0.0
 10
25.358659
 20
8.495398
 30
0.0
 10
25.421497
 20
8.495398
 30
0.0
 10
25.681431
 20
8.503018
 30
0.0
 10
25.939640
 20
8.532256
 30
0.0
 10
25.939640
 20
8.795344
 30
0.0
 10
25.939640
 20
9.058601
 30
0.0
 10
25.939640
 20
9.321519
 30
0.0
 10
25.939640
 20
9.584861
 30
0.0
 10
25.939640
 20
9.848005
 30
0.0
 10
26.086014
 20
9.788089
 30
0.0
 10
26.230130
 20
9.722896
 30
0.0
 10
26.230130
 20
9.448660
 30
0.0
 10
26.230130
 20
9.174058
 30
0.0
 10
26.230130
 20
8.899230
 30
0.0
 10
26.230130
 20
8.624882
 30
0.0
 10
26.412654
 20
8.770226
 30
0.0
 10
26.493992
 20
8.989795
 30
0.0
 10
26.510700
 20
9.224604
 30
0.0
 10
26.574805
 20
9.441859
 30
0.0
 10
26.760093
 20
9.571455
 30
0.0
 10
26.987304
 20
9.571427
 30
0.0
 10
27.172498
 20
9.441943
 30
0.0
 10
27.236650
 20
9.224604
 30
0.0
 10
27.219895
 20
8.986860
 30
0.0
 10
27.167831
 20
8.754196
 30
0.0
 10
27.079554
 20
8.532821
 30
0.0
 10
26.985022
 20
8.275801
 30
0.0
 10
26.810560
 20
8.064276
 30
0.0
 10
26.810560
 20
8.164606
 30
0.0
 10
26.656780
 20
8.037718
 30
0.0
 10
26.483690
 20
7.938066
 30
0.0
 10
26.230131
 20
7.848771
 30
0.0
 10
26.230131
 20
7.715364
 30
0.0
 10
26.086137
 20
7.659400
 30
0.0
 10
25.939640
 20
7.609531
 30
0.0
 10
25.939640
 20
7.793088
 30
0.0
 10
25.681027
 20
7.772486
 30
0.0
 10
25.421498
 20
7.768817
 30
0.0
 10
25.358660
 20
7.768817
 30
0.0
 10
25.358660
 20
7.617207
 30
0.0
 10
25.358660
 20
7.465626
 30
0.0
 10
25.213801
 20
7.440508
 30
0.0
 10
25.068169
 20
7.418212
 30
0.0
 10
25.068169
 20
7.593501
 30
0.0
 10
25.068169
 20
7.768789
 30
0.0
 10
24.874711
 20
7.768789
 30
0.0
 10
24.680791
 20
7.768789
 30
0.0
 10
24.487188
 20
7.768789
 30
0.0
 10
24.487188
 20
7.559860
 30
0.0
 10
24.487188
 20
7.350959
 30
0.0
 10
24.341967
 20
7.341646
 30
0.0
 10
24.196698
 20
7.335719
 30
0.0
 10
24.196698
 20
7.552353
 30
0.0
 10
24.196698
 20
7.768986
 30
0.0
 10
24.003423
 20
7.768986
 30
0.0
 10
23.809688
 20
7.768986
 30
0.0
 10
23.616268
 20
7.768986
 30
0.0
 10
23.616268
 20
7.530311
 30
0.0
 10
23.616268
 20
7.291636
 30
0.0
 10
23.469923
 20
7.263047
 30
0.0
 10
23.325226
 20
7.229349
 30
0.0
 10
23.325226
 20
7.499154
 30
0.0
 10
23.325226
 20
7.768986
 30
0.0
 10
23.131952
 20
7.768986
 30
0.0
 10
22.938216
 20
7.768986
 30
0.0
 10
22.744797
 20
7.768986
 30
0.0
 10
22.744797
 20
7.536068
 30
0.0
 10
22.744797
 20
7.302586
 30
0.0
 10
22.744797
 20
7.069470
 30
0.0
 10
22.599602
 20
7.029903
 30
0.0
 10
22.454306
 20
6.991210
 30
0.0
 10
22.454306
 20
7.250206
 30
0.0
 10
22.454306
 20
7.509794
 30
0.0
 10
22.454306
 20
7.768986
 30
0.0
 10
22.260848
 20
7.768986
 30
0.0
 10
22.066928
 20
7.768986
 30
0.0
 10
21.873325
 20
7.768986
 30
0.0
 10
21.873325
 20
7.539201
 30
0.0
 10
21.873325
 20
7.309134
 30
0.0
 10
21.873325
 20
7.078868
 30
0.0
 10
21.873325
 20
6.848998
 30
0.0
 10
21.728478
 20
6.820268
 30
0.0
 10
21.583386
 20
6.794022
 30
0.0
 10
21.583386
 20
7.037579
 30
0.0
 10
21.583386
 20
7.281419
 30
0.0
 10
21.583386
 20
7.525485
 30
0.0
 10
21.583386
 20
7.769128
 30
0.0
 10
21.474797
 20
7.769128
 30
0.0
 10
21.235533
 20
7.789165
 30
0.0
 10
21.001854
 20
7.845328
 30
0.0
 10
21.001854
 20
7.618054
 30
0.0
 10
21.001854
 20
7.390639
 30
0.0
 10
21.001854
 20
7.163535
 30
0.0
 10
21.001854
 20
6.936036
 30
0.0
 10
21.001854
 20
6.708706
 30
0.0
 10
20.856792
 20
6.691208
 30
0.0
 10
20.711915
 20
6.676250
 30
0.0
 10
20.711915
 20
6.934173
 30
0.0
 10
20.711915
 20
7.192237
 30
0.0
 10
20.711915
 20
7.449962
 30
0.0
 10
20.711915
 20
7.708139
 30
0.0
 10
20.711915
 20
7.966090
 30
0.0
 10
20.535673
 20
8.070456
 30
0.0
 10
20.370721
 20
8.192150
 30
0.0
 10
20.219128
 20
8.329339
 30
0.0
 10
20.130934
 20
8.424702
 30
0.0
 10
20.130934
 20
8.171097
 30
0.0
 10
20.130934
 20
7.917379
 30
0.0
 10
20.130934
 20
7.663464
 30
0.0
 10
20.130934
 20
7.409746
 30
0.0
 10
20.130934
 20
7.155830
 30
0.0
 10
20.130934
 20
6.901774
 30
0.0
 10
20.130934
 20
6.648141
 30
0.0
 10
19.947930
 20
6.643625
 30
0.0
 10
19.840443
 20
6.646448
 30
0.0
 10
19.840443
 20
6.894606
 30
0.0
 10
19.840443
 20
7.142933
 30
0.0
 10
19.840443
 20
7.391401
 30
0.0
 10
19.840443
 20
7.639672
 30
0.0
 10
19.840443
 20
7.888169
 30
0.0
 10
19.840443
 20
8.136778
 30
0.0
 10
19.840443
 20
8.384993
 30
0.0
 10
19.789180
 20
8.329310
 30
0.0
 10
19.626647
 20
8.183035
 30
0.0
 10
19.449558
 20
8.054878
 30
0.0
 10
19.259463
 20
7.946786
 30
0.0
 10
19.259463
 20
7.691516
 30
0.0
 10
19.259463
 20
7.436077
 30
0.0
 10
19.259463
 20
7.181005
 30
0.0
 10
19.259463
 20
6.925481
 30
0.0
 10
19.259463
 20
6.670154
 30
0.0
 10
19.199380
 20
6.673541
 30
0.0
 10
18.969523
 20
6.699505
 30
0.0
 10
18.969523
 20
6.926440
 30
0.0
 10
18.969523
 20
7.153544
 30
0.0
 10
18.969523
 20
7.380310
 30
0.0
 10
18.969523
 20
7.607471
 30
0.0
 10
18.969523
 20
7.834462
 30
0.0
 10
18.753668
 20
7.786484
 30
0.0
 10
18.533512
 20
7.769551
 30
0.0
 10
18.387991
 20
7.769551
 30
0.0
 10
18.387991
 20
7.522437
 30
0.0
 10
18.387991
 20
7.274985
 30
0.0
 10
18.387991
 20
7.027335
 30
0.0
 10
18.387991
 20
6.780108
 30
0.0
 10
18.243011
 20
6.804944
 30
0.0
 10
18.098052
 20
6.832037
 30
0.0
 10
18.098052
 20
7.066225
 30
0.0
 10
18.098052
 20
7.300695
 30
0.0
 10
18.098052
 20
7.535391
 30
0.0
 10
18.098052
 20
7.769664
 30
0.0
 10
17.904410
 20
7.769664
 30
0.0
 10
17.710307
 20
7.769664
 30
0.0
 10
17.516520
 20
7.769664
 30
0.0
 10
17.516520
 20
7.503698
 30
0.0
 10
17.516520
 20
7.237110
 30
0.0
 10
17.516520
 20
6.970947
 30
0.0
 10
17.371382
 20
7.009498
 30
0.0
 10
17.226580
 20
7.049207
 30
0.0
 10
17.226580
 20
7.289096
 30
0.0
 10
17.226580
 20
7.529577
 30
0.0
 10
17.226580
 20
7.769664
 30
0.0
 10
17.033306
 20
7.769664
 30
0.0
 10
16.839570
 20
7.769664
 30
0.0
 10
16.646151
 20
7.769664
 30
0.0
 10
16.646151
 20
7.489643
 30
0.0
 10
16.646151
 20
7.209622
 30
0.0
 10
16.500909
 20
7.245436
 30
0.0
 10
16.355109
 20
7.276876
 30
0.0
 10
16.355109
 20
7.523256
 30
0.0
 10
16.355109
 20
7.769664
 30
0.0
 10
16.161834
 20
7.769664
 30
0.0
 10
15.968099
 20
7.769664
 30
0.0
 10
15.774679
 20
7.769664
 30
0.0
 10
15.774679
 20
7.551647
 30
0.0
 10
15.774679
 20
7.333630
 30
0.0
 10
15.629532
 20
7.337299
 30
0.0
 10
15.484189
 20
7.343508
 30
0.0
 10
15.484189
 20
7.556558
 30
0.0
 10
15.484189
 20
7.769607
 30
0.0
 10
15.290731
 20
7.769607
 30
0.0
 10
15.096811
 20
7.769607
 30
0.0
 10
14.903208
 20
7.769607
 30
0.0
 10
14.903208
 20
7.587969
 30
0.0
 10
14.903208
 20
7.406359
 30
0.0
 10
14.757799
 20
7.428655
 30
0.0
 10
14.612718
 20
7.453772
 30
0.0
 10
14.612718
 20
7.611704
 30
0.0
 10
14.612718
 20
7.769636
 30
0.0
 10
14.586810
 20
7.769636
 30
0.0
 10
14.308763
 20
7.774716
 30
0.0
 10
14.031736
 20
7.799833
 30
0.0
 10
14.031736
 20
7.589267
 30
0.0
 10
13.885705
 20
7.633604
 30
0.0
 10
13.741245
 20
7.683530
 30
0.0
 10
13.741245
 20
7.859918
 30
0.0
 10
13.524618
 20
7.938743
 30
0.0
 10
13.330279
 20
8.053579
 30
0.0
 10
13.160816
 20
8.202762
 30
0.0
 10
13.160816
 20
7.995498
 30
0.0
 10
12.993839
 20
8.155913
 30
0.0
 10
12.869774
 20
8.351606
 30
0.0
 10
12.869774
 20
8.512557
 30
0.0
 10
12.869774
 20
8.673509
 30
0.0
 10
12.796026
 20
8.945035
 30
0.0
 10
12.771657
 20
9.225281
 30
0.0
 10
12.835761
 20
9.442536
 30
0.0
 10
13.021049
 20
9.572132
 30
0.0
 10
13.248261
 20
9.572104
 30
0.0
 10
13.433455
 20
9.442621
 30
0.0
 10
13.497607
 20
9.225281
 30
0.0
 10
13.512170
 20
9.004217
 30
0.0
 10
13.580729
 20
8.794610
 30
0.0
 10
13.741245
 20
8.645399
 30
0.0
 10
13.741245
 20
8.922937
 30
0.0
 10
13.741245
 20
9.200841
 30
0.0
 10
13.741245
 20
9.478999
 30
0.0
 10
13.741245
 20
9.756649
 30
0.0
 10
13.885732
 20
9.819670
 30
0.0
 10
14.031736
 20
9.877920
 30
0.0
 10
14.031736
 20
9.610176
 30
0.0
 10
14.031736
 20
9.342291
 30
0.0
 10
14.031736
 20
9.074772
 30
0.0
 10
14.031736
 20
8.806774
 30
0.0
 10
14.031736
 20
8.539002
 30
0.0
 10
14.308078
 20
8.504486
 30
0.0
 10
14.586810
 20
8.496019
 30
0.0
 10
14.612718
 20
8.496019
 30
0.0
 10
14.612718
 20
8.759728
 30
0.0
 10
14.612718
 20
9.022956
 30
0.0
 10
14.612718
 20
9.286693
 30
0.0
 10
14.612718
 20
9.550119
 30
0.0
 10
14.612718
 20
9.813348
 30
0.0
 10
14.612718
 20
10.076887
 30
0.0
 10
14.758113
 20
10.125034
 30
0.0
 10
14.903208
 20
10.173915
 30
0.0
 10
14.903208
 20
9.894007
 30
0.0
 10
14.903208
 20
9.614635
 30
0.0
 10
14.903208
 20
9.334699
 30
0.0
 10
14.903208
 20
9.055130
 30
0.0
 10
14.903208
 20
8.775730
 30
0.0
 10
14.903208
 20
8.496019
 30
0.0
 10
15.096666
 20
8.496019
 30
0.0
 10
15.290586
 20
8.496019
 30
0.0
 10
15.484189
 20
8.496019
 30
0.0
 10
15.484189
 20
8.767940
 30
0.0
 10
15.484189
 20
9.040031
 30
0.0
 10
15.484189
 20
9.312290
 30
0.0
 10
15.484189
 20
9.584353
 30
0.0
 10
15.484189
 20
9.856641
 30
0.0
 10
15.484189
 20
10.129042
 30
0.0
 10
15.484189
 20
10.401019
 30
0.0
 10
15.608764
 20
10.496382
 30
0.0
 10
15.774679
 20
10.672206
 30
0.0
 10
15.774679
 20
10.400455
 30
0.0
 10
15.774679
 20
10.128251
 30
0.0
 10
15.774679
 20
9.856387
 30
0.0
 10
15.774679
 20
9.584296
 30
0.0
 10
15.774679
 20
9.312319
 30
0.0
 10
15.774679
 20
9.040144
 30
0.0
 10
15.774679
 20
8.768335
 30
0.0
 10
15.774679
 20
8.496019
 30
0.0
 10
15.967954
 20
8.496019
 30
0.0
 10
16.161690
 20
8.496019
 30
0.0
 10
16.355109
 20
8.496019
 30
0.0
 10
16.355109
 20
8.764949
 30
0.0
 10
16.355109
 20
9.033794
 30
0.0
 10
16.355109
 20
9.302695
 30
0.0
 10
16.355109
 20
9.571624
 30
0.0
 10
16.355109
 20
9.840582
 30
0.0
 10
16.355109
 20
10.109455
 30
0.0
 10
16.355109
 20
10.378413
 30
0.0
 10
16.355109
 20
10.647456
 30
0.0
 10
16.355109
 20
10.916611
 30
0.0
 10
16.355109
 20
11.185682
 30
0.0
 10
16.355109
 20
11.454809
 30
0.0
 10
16.355109
 20
11.723371
 30
0.0
 10
16.453280
 20
11.951576
 30
0.0
 10
16.550118
 20
12.180600
 30
0.0
 10
16.646151
 20
12.410187
 30
0.0
 10
16.646151
 20
12.130646
 30
0.0
 10
16.646151
 20
11.851020
 30
0.0
 10
16.646151
 20
11.571395
 30
0.0
 10
16.646151
 20
11.291712
 30
0.0
 10
16.646151
 20
11.011889
 30
0.0
 10
16.646151
 20
10.732517
 30
0.0
 10
16.646151
 20
10.453089
 30
0.0
 10
16.646151
 20
10.173689
 30
0.0
 10
16.646151
 20
9.893979
 30
0.0
 10
16.646151
 20
9.614522
 30
0.0
 10
16.646151
 20
9.334812
 30
0.0
 10
16.646151
 20
9.054932
 30
0.0
 10
16.646151
 20
8.775758
 30
0.0
 10
16.646151
 20
8.496019
 30
0.0
 10
16.839425
 20
8.496019
 30
0.0
 10
17.033161
 20
8.496019
 30
0.0
 10
17.226580
 20
8.496019
 30
0.0
 10
17.226580
 20
8.762268
 30
0.0
 10
17.226580
 20
9.028544
 30
0.0
 10
17.226580
 20
9.294962
 30
0.0
 10
17.226580
 20
9.561436
 30
0.0
 10
17.226580
 20
9.827628
 30
0.0
 10
17.226580
 20
10.093764
 30
0.0
 10
17.226580
 20
10.359984
 30
0.0
 10
17.226580
 20
10.626007
 30
0.0
 10
17.226580
 20
10.892058
 30
0.0
 10
17.226580
 20
11.158645
 30
0.0
 10
17.226580
 20
11.424978
 30
0.0
 10
17.226580
 20
11.691396
 30
0.0
 10
17.226580
 20
11.957672
 30
0.0
 10
17.226580
 20
12.223977
 30
0.0
 10
17.226580
 20
12.490113
 30
0.0
 10
17.226580
 20
12.756418
 30
0.0
 10
17.226580
 20
13.022581
 30
0.0
 10
16.968503
 20
13.022581
 30
0.0
 10
16.710564
 20
13.022581
 30
0.0
 10
16.452122
 20
13.022581
 30
0.0
 10
16.194145
 20
13.022581
 30
0.0
 10
15.935938
 20
13.022581
 30
0.0
 10
15.677722
 20
13.022581
 30
0.0
 10
15.419685
 20
13.022581
 30
0.0
 10
15.161312
 20
13.022581
 30
0.0
 10
14.903208
 20
13.022581
 30
0.0
 10
14.903208
 20
12.740359
 30
0.0
 10
14.903208
 20
12.458137
 30
0.0
 10
14.817694
 20
12.248643
 30
0.0
 10
14.720450
 20
12.044117
 30
0.0
 10
14.612718
 20
11.844642
 30
0.0
 10
14.612718
 20
12.080185
 30
0.0
 10
14.612718
 20
12.315869
 30
0.0
 10
14.612718
 20
12.551242
 30
0.0
 10
14.612718
 20
12.787010
 30
0.0
 10
14.612718
 20
13.022581
 30
0.0
 10
14.419259
 20
13.022581
 30
0.0
 10
14.225340
 20
13.022581
 30
0.0
 10
14.031737
 20
13.022581
 30
0.0
 10
14.031737
 20
12.741911
 30
0.0
 10
14.031737
 20
12.461100
 30
0.0
 10
14.031737
 20
12.180092
 30
0.0
 10
14.031737
 20
11.899309
 30
0.0
 10
14.031737
 20
11.618272
 30
0.0
 10
14.031737
 20
11.337122
 30
0.0
 10
14.031737
 20
11.056396
 30
0.0
 10
13.890436
 20
10.914156
 30
0.0
 10
13.741246
 20
10.779705
 30
0.0
 10
13.741246
 20
11.059810
 30
0.0
 10
13.741246
 20
11.340311
 30
0.0
 10
13.741246
 20
11.620501
 30
0.0
 10
13.741246
 20
11.900946
 30
0.0
 10
13.741246
 20
12.181277
 30
0.0
 10
13.741246
 20
12.461778
 30
0.0
 10
13.741246
 20
12.741911
 30
0.0
 10
13.741246
 20
13.022581
 30
0.0
 10
13.547971
 20
13.022581
 30
0.0
 10
13.354236
 20
13.022581
 30
0.0
 10
13.160816
 20
13.022581
 30
0.0
 10
13.160816
 20
12.760199
 30
0.0
 10
13.160816
 20
12.497958
 30
0.0
 10
13.160816
 20
12.235830
 30
0.0
 10
13.160816
 20
11.973533
 30
0.0
 10
13.160816
 20
11.711349
 30
0.0
 10
13.160816
 20
11.448600
 30
0.0
 10
13.160816
 20
11.186246
 30
0.0
 10
13.160816
 20
10.923864
 30
0.0
 10
13.160816
 20
10.661172
 30
0.0
 10
13.160816
 20
10.398818
 30
0.0
 10
13.016942
 20
10.336785
 30
0.0
 10
12.869775
 20
10.284151
 30
0.0
 10
12.869775
 20
10.559064
 30
0.0
 10
12.869775
 20
10.833835
 30
0.0
 10
12.869775
 20
11.109143
 30
0.0
 10
12.869775
 20
11.383943
 30
0.0
 10
12.869775
 20
11.658996
 30
0.0
 10
12.869775
 20
11.934078
 30
0.0
 10
12.869775
 20
12.208963
 30
0.0
 10
12.869775
 20
12.484186
 30
0.0
 10
12.869775
 20
12.759127
 30
0.0
 10
12.759614
 20
12.577686
 30
0.0
 10
12.624050
 20
12.413800
 30
0.0
 10
12.465979
 20
12.271193
 30
0.0
 10
12.289345
 20
12.153337
 30
0.0
 10
12.289345
 20
11.903909
 30
0.0
 10
12.289345
 20
11.654566
 30
0.0
 10
12.289345
 20
11.405589
 30
0.0
 10
12.289345
 20
11.156443
 30
0.0
 10
12.289345
 20
10.907410
 30
0.0
 10
12.289345
 20
10.658236
 30
0.0
 10
12.289345
 20
10.409429
 30
0.0
 10
12.289345
 20
10.160142
 30
0.0
 10
12.144395
 20
10.145749
 30
0.0
 10
11.998855
 20
10.136436
 30
0.0
 10
11.998855
 20
10.406410
 30
0.0
 10
11.998855
 20
10.676524
 30
0.0
 10
11.998855
 20
10.946809
 30
0.0
 10
11.998855
 20
11.216895
 30
0.0
 10
11.998855
 20
11.487208
 30
0.0
 10
11.998855
 20
11.757661
 30
0.0
 10
11.998855
 20
12.027663
 30
0.0
 10
11.786628
 20
11.978557
 30
0.0
 10
11.569458
 20
11.961623
 30
0.0
 10
11.417874
 20
11.969808
 30
0.0
 10
11.417874
 20
11.708329
 30
0.0
 10
11.417874
 20
11.446737
 30
0.0
 10
11.417874
 20
11.184948
 30
0.0
 10
11.417874
 20
10.923356
 30
0.0
 10
11.417874
 20
10.661538
 30
0.0
 10
11.417874
 20
10.399608
 30
0.0
 10
11.417874
 20
10.138101
 30
0.0
 10
11.272437
 20
10.146568
 30
0.0
 10
11.127383
 20
10.157292
 30
0.0
 10
11.127383
 20
10.424726
 30
0.0
 10
11.127383
 20
10.692329
 30
0.0
 10
11.127383
 20
10.960101
 30
0.0
 10
11.127383
 20
11.227676
 30
0.0
 10
11.127383
 20
11.495477
 30
0.0
 10
11.127383
 20
11.763390
 30
0.0
 10
11.127383
 20
12.030881
 30
0.0
 10
10.916185
 20
12.116902
 30
0.0
 10
10.720863
 20
12.234758
 30
0.0
 10
10.546403
 20
12.381457
 30
0.0
 10
10.546403
 20
12.111286
 30
0.0
 10
10.546403
 20
11.840663
 30
0.0
 10
10.546403
 20
11.570379
 30
0.0
 10
10.546403
 20
11.299869
 30
0.0
 10
10.546403
 20
11.029472
 30
0.0
 10
10.546403
 20
10.758877
 30
0.0
 10
10.546403
 20
10.488649
 30
0.0
 10
10.546403
 20
10.217913
 30
0.0
 10
10.401144
 20
10.234000
 30
0.0
 10
10.255912
 20
10.250087
 30
0.0
 10
10.255912
 20
10.531603
 30
0.0
 10
10.255912
 20
10.813007
 30
0.0
 10
10.255912
 20
11.094919
 30
0.0
 10
10.255912
 20
11.376351
 30
0.0
 10
10.255912
 20
11.658009
 30
0.0
 10
10.255912
 20
11.939695
 30
0.0
 10
10.255912
 20
12.221183
 30
0.0
 10
10.255912
 20
12.503038
 30
0.0
 10
10.255912
 20
12.784583
 30
0.0
 10
10.165513
 20
13.022694
 30
0.0
 10
9.920497
 20
13.022694
 30
0.0
 10
9.675482
 20
13.022694
 30
0.0
 10
9.675482
 20
12.751507
 30
0.0
 10
9.675482
 20
12.480432
 30
0.0
 10
9.675482
 20
12.209499
 30
0.0
 10
9.675482
 20
11.938396
 30
0.0
 10
9.675482
 20
11.667407
 30
0.0
 10
9.675482
 20
11.395824
 30
0.0
 10
9.675482
 20
11.124637
 30
0.0
 10
9.675482
 20
10.853421
 30
0.0
 10
9.675482
 20
10.581895
 30
0.0
 10
9.675482
 20
10.310736
 30
0.0
 10
9.530120
 20
10.322307
 30
0.0
 10
9.384441
 20
10.331903
 30
0.0
 10
9.384441
 20
10.601002
 30
0.0
 10
9.384441
 20
10.869960
 30
0.0
 10
9.384441
 20
11.138833
 30
0.0
 10
9.384441
 20
11.407847
 30
0.0
 10
9.384441
 20
11.676748
 30
0.0
 10
9.384441
 20
11.946214
 30
0.0
 10
9.384441
 20
12.215313
 30
0.0
 10
9.384441
 20
12.484412
 30
0.0
 10
9.384441
 20
12.753849
 30
0.0
 10
9.384441
 20
13.022920
 30
0.0
 10
9.191166
 20
13.022920
 30
0.0
 10
8.997430
 20
13.022920
 30
0.0
 10
8.804011
 20
13.022920
 30
0.0
 10
8.804011
 20
12.755571
 30
0.0
 10
8.804011
 20
12.488391
 30
0.0
 10
8.804011
 20
12.221268
 30
0.0
 10
8.804011
 20
11.954032
 30
0.0
 10
8.804011
 20
11.686908
 30
0.0
 10
8.804011
 20
11.419192
 30
0.0
 10
8.804011
 20
11.151871
 30
0.0
 10
8.804011
 20
10.884522
 30
0.0
 10
8.804011
 20
10.616863
 30
0.0
 10
8.804011
 20
10.349542
 30
0.0
 10
8.562028
 20
10.339100
 30
0.0
 10
8.514072
 20
10.332326
 30
0.0
 10
8.514072
 20
10.601369
 30
0.0
 10
8.514072
 20
10.870270
 30
0.0
 10
8.514072
 20
11.139087
 30
0.0
 10
8.514072
 20
11.408044
 30
0.0
 10
8.514072
 20
11.676889
 30
0.0
 10
8.514072
 20
11.946327
 30
0.0
 10
8.514072
 20
12.215341
 30
0.0
 10
8.514072
 20
12.484412
 30
0.0
 10
8.514072
 20
12.753793
 30
0.0
 10
8.514072
 20
13.022807
 30
0.0
 10
8.320430
 20
13.022807
 30
0.0
 10
8.126327
 20
13.022807
 30
0.0
 10
7.932540
 20
13.022807
 30
0.0
 10
7.932540
 20
12.745100
 30
0.0
 10
7.932540
 20
12.467563
 30
0.0
 10
7.932540
 20
12.190082
 30
0.0
 10
7.932540
 20
11.912488
 30
0.0
 10
7.932540
 20
11.634697
 30
0.0
 10
7.932540
 20
11.356652
 30
0.0
 10
7.932540
 20
11.079030
 30
0.0
 10
7.932540
 20
10.801380
 30
0.0
 10
7.932540
 20
10.523391
 30
0.0
 10
7.932540
 20
10.245797
 30
0.0
 10
7.787467
 20
10.220397
 30
0.0
 10
7.642600
 20
10.194150
 30
0.0
 10
7.642600
 20
10.451424
 30
0.0
 10
7.642600
 20
10.708444
 30
0.0
 10
7.642600
 20
10.965576
 30
0.0
 10
7.642600
 20
11.222737
 30
0.0
 10
7.642600
 20
11.479729
 30
0.0
 10
7.642600
 20
11.737116
 30
0.0
 10
7.642600
 20
11.994164
 30
0.0
 10
7.642600
 20
12.251578
 30
0.0
 10
7.642600
 20
12.508683
 30
0.0
 10
7.642600
 20
12.765787
 30
0.0
 10
7.642600
 20
13.022976
 30
0.0
 10
7.448959
 20
13.022976
 30
0.0
 10
7.254855
 20
13.022976
 30
0.0
 10
7.061068
 20
13.022976
 30
0.0
 10
7.061068
 20
12.755119
 30
0.0
 10
7.061068
 20
12.487544
 30
0.0
 10
7.061068
 20
12.219828
 30
0.0
 10
7.061068
 20
11.952112
 30
0.0
 10
7.061068
 20
11.684538
 30
0.0
 10
7.061068
 20
11.416568
 30
0.0
 10
7.061068
 20
11.148964
 30
0.0
 10
7.061068
 20
10.880938
 30
0.0
 10
7.061068
 20
10.613278
 30
0.0
 10
7.061068
 20
10.345591
 30
0.0
 10
7.061068
 20
10.077846
 30
0.0
 10
6.916067
 20
10.048241
 30
0.0
 10
6.771129
 20
10.018326
 30
0.0
 10
6.771129
 20
10.291602
 30
0.0
 10
6.771129
 20
10.564567
 30
0.0
 10
6.771129
 20
10.837702
 30
0.0
 10
6.771129
 20
11.110836
 30
0.0
 10
6.771129
 20
11.383802
 30
0.0
 10
6.771129
 20
11.657190
 30
0.0
 10
6.771129
 20
11.930212
 30
0.0
 10
6.771129
 20
12.203629
 30
0.0
 10
6.771129
 20
12.476707
 30
0.0
 10
6.771129
 20
12.749814
 30
0.0
 10
6.771129
 20
13.022976
 30
0.0
 10
6.577487
 20
13.022976
 30
0.0
 10
6.383384
 20
13.022976
 30
0.0
 10
6.189597
 20
13.022976
 30
0.0
 10
6.189597
 20
13.022976
 30
0.0
  0
LWPOLYLINE
  5
109
100
AcDbEntity
  8
Layer_1
 62
7
100
AcDbPolyline
 90
909
 70
0
 10
5.318676
 20
13.021594
 30
0.0
 10
5.318676
 20
12.862307
 30
0.0
 10
5.384051
 20
12.621346
 30
0.0
 10
5.455534
 20
12.382106
 30
0.0
 10
5.533090
 20
12.144419
 30
0.0
 10
5.616335
 20
11.909130
 30
0.0
 10
5.705279
 20
11.675873
 30
0.0
 10
5.799883
 20
11.444451
 30
0.0
 10
5.899657
 20
11.215823
 30
0.0
 10
5.899657
 20
11.473576
 30
0.0
 10
5.899657
 20
11.731499
 30
0.0
 10
5.899657
 20
11.989592
 30
0.0
 10
5.899657
 20
12.247458
 30
0.0
 10
5.899657
 20
12.505578
 30
0.0
 10
5.899657
 20
12.763784
 30
0.0
 10
5.899657
 20
13.021594
 30
0.0
 10
5.706199
 20
13.021594
 30
0.0
 10
5.512279
 20
13.021594
 30
0.0
 10
5.318676
 20
13.021594
 30
0.0
 10
5.318676
 20
13.021594
 30
0.0
 10
5.512134
 20
13.021594
 30
0.0
 10
5.706054
 20
13.021594
 30
0.0
 10
5.899657
 20
13.021594
 30
0.0
 10
5.899657
 20
13.285923
 30
0.0
 10
5.899657
 20
13.550111
 30
0.0
 10
5.899657
 20
13.814807
 30
0.0
 10
5.899657
 20
14.079024
 30
0.0
 10
5.899657
 20
14.343466
 30
0.0
 10
5.899657
 20
14.607936
 30
0.0
 10
5.899657
 20
14.872223
 30
0.0
 10
5.899657
 20
15.136849
 30
0.0
 10
5.899657
 20
15.401201
 30
0.0
 10
6.044711
 20
15.442789
 30
0.0
 10
6.189596
 20
15.484437
 30
0.0
 10
6.189596
 20
15.210868
 30
0.0
 10
6.189596
 20
14.937445
 30
0.0
 10
6.189596
 20
14.663478
 30
0.0
 10
6.189596
 20
14.390033
 30
0.0
 10
6.189596
 20
14.116305
 30
0.0
 10
6.189596
 20
13.842606
 30
0.0
 10
6.189596
 20
13.569076
 30
0.0
 10
6.189596
 20
13.295180
 30
0.0
 10
6.189596
 20
13.021594
 30
0.0
 10
6.383238
 20
13.021594
 30
0.0
 10
6.577342
 20
13.021594
 30
0.0
 10
6.771129
 20
13.021594
 30
0.0
 10
6.771129
 20
13.285838
 30
0.0
 10
6.771129
 20
13.549970
 30
0.0
 10
6.771129
 20
13.813989
 30
0.0
 10
6.771129
 20
14.078149
 30
0.0
 10
6.771129
 20
14.342196
 30
0.0
 10
6.771129
 20
14.606836
 30
0.0
 10
6.771129
 20
14.871066
 30
0.0
 10
6.771129
 20
15.135334
 30
0.0
 10
6.771129
 20
15.399908
 30
0.0
 10
6.771129
 20
15.664131
 30
0.0
 10
6.916077
 20
15.710909
 30
0.0
 10
7.061068
 20
15.758940
 30
0.0
 10
7.061068
 20
15.485204
 30
0.0
 10
7.061068
 20
15.211615
 30
0.0
 10
7.061068
 20
14.938120
 30
0.0
 10
7.061068
 20
14.664494
 30
0.0
 10
7.061068
 20
14.390682
 30
0.0
 10
7.061068
 20
14.116588
 30
0.0
 10
7.061068
 20
13.842917
 30
0.0
 10
7.061068
 20
13.569218
 30
0.0
 10
7.061068
 20
13.295236
 30
0.0
 10
7.061068
 20
13.021594
 30
0.0
 10
7.254709
 20
13.021594
 30
0.0
 10
7.448813
 20
13.021594
 30
0.0
 10
7.642600
 20
13.021594
 30
0.0
 10
7.642600
 20
13.289112
 30
0.0
 10
7.642600
 20
13.556320
 30
0.0
 10
7.642600
 20
13.823697
 30
0.0
 10
7.642600
 20
14.091075
 30
0.0
 10
7.642600
 20
14.358283
 30
0.0
 10
7.642600
 20
14.625886
 30
0.0
 10
7.642600
 20
14.893164
 30
0.0
 10
7.642600
 20
15.160830
 30
0.0
 10
7.642600
 20
15.428150
 30
0.0
 10
7.642600
 20
15.695485
 30
0.0
 10
7.642600
 20
15.962891
 30
0.0
 10
7.787794
 20
16.014419
 30
0.0
 10
7.932539
 20
16.065967
 30
0.0
 10
7.932539
 20
15.789082
 30
0.0
 10
7.932539
 20
15.512495
 30
0.0
 10
7.932539
 20
15.235745
 30
0.0
 10
7.932539
 20
14.959018
 30
0.0
 10
7.932539
 20
14.682443
 30
0.0
 10
7.932539
 20
14.405442
 30
0.0
 10
7.932539
 20
14.128808
 30
0.0
 10
7.932539
 20
13.851750
 30
0.0
 10
7.932539
 20
13.575088
 30
0.0
 10
7.932539
 20
13.298369
 30
0.0
 10
7.932539
 20
13.021594
 30
0.0
 10
8.126181
 20
13.021594
 30
0.0
 10
8.320284
 20
13.021594
 30
0.0
 10
8.514071
 20
13.021594
 30
0.0
 10
8.514071
 20
13.292499
 30
0.0
 10
8.514071
 20
13.563319
 30
0.0
 10
8.514071
 20
13.834196
 30
0.0
 10
8.514071
 20
14.105101
 30
0.0
 10
8.514071
 20
14.376034
 30
0.0
 10
8.514071
 20
14.646883
 30
0.0
 10
8.514071
 20
14.917831
 30
0.0
 10
8.514071
 20
15.188846
 30
0.0
 10
8.514071
 20
15.459974
 30
0.0
 10
8.514071
 20
15.731040
 30
0.0
 10
8.514071
 20
16.002128
 30
0.0
 10
8.514071
 20
16.272675
 30
0.0
 10
8.658867
 20
16.324519
 30
0.0
 10
8.804010
 20
16.375751
 30
0.0
 10
8.804010
 20
16.096264
 30
0.0
 10
8.804010
 20
15.816841
 30
0.0
 10
8.804010
 20
15.537373
 30
0.0
 10
8.804010
 20
15.257886
 30
0.0
 10
8.804010
 20
14.978373
 30
0.0
 10
8.804010
 20
14.698925
 30
0.0
 10
8.804010
 20
14.419384
 30
0.0
 10
8.804010
 20
14.139786
 30
0.0
 10
8.804010
 20
13.860076
 30
0.0
 10
8.804010
 20
13.580394
 30
0.0
 10
8.804010
 20
13.300711
 30
0.0
 10
8.804010
 20
13.021594
 30
0.0
 10
8.997285
 20
13.021594
 30
0.0
 10
9.191020
 20
13.021594
 30
0.0
 10
9.384440
 20
13.021594
 30
0.0
 10
9.384440
 20
13.294277
 30
0.0
 10
9.384440
 20
13.567016
 30
0.0
 10
9.384440
 20
13.839671
 30
0.0
 10
9.384440
 20
14.112157
 30
0.0
 10
9.384440
 20
14.384670
 30
0.0
 10
9.384440
 20
14.657495
 30
0.0
 10
9.384440
 20
14.930291
 30
0.0
 10
9.384440
 20
15.203061
 30
0.0
 10
9.384440
 20
15.475640
 30
0.0
 10
9.384440
 20
15.748408
 30
0.0
 10
9.384440
 20
16.021308
 30
0.0
 10
9.384440
 20
16.294217
 30
0.0
 10
9.384440
 20
16.567022
 30
0.0
 10
9.529957
 20
16.613583
 30
0.0
 10
9.675482
 20
16.658524
 30
0.0
 10
9.675482
 20
16.378802
 30
0.0
 10
9.675482
 20
16.099015
 30
0.0
 10
9.675482
 20
15.819344
 30
0.0
 10
9.675482
 20
15.539803
 30
0.0
 10
9.675482
 20
15.260259
 30
0.0
 10
9.675482
 20
14.980413
 30
0.0
 10
9.675482
 20
14.700562
 30
0.0
 10
9.675482
 20
14.420767
 30
0.0
 10
9.675482
 20
14.141141
 30
0.0
 10
9.675482
 20
13.861346
 30
0.0
 10
9.675482
 20
13.581381
 30
0.0
 10
9.675482
 20
13.301445
 30
0.0
 10
9.675482
 20
13.021594
 30
0.0
 10
9.920497
 20
13.021594
 30
0.0
 10
10.165512
 20
13.021594
 30
0.0
 10
10.122630
 20
13.219968
 30
0.0
 10
10.107635
 20
13.422349
 30
0.0
 10
10.124794
 20
13.641410
 30
0.0
 10
10.174631
 20
13.855532
 30
0.0
 10
10.255914
 20
14.059550
 30
0.0
 10
10.255914
 20
14.334604
 30
0.0
 10
10.255914
 20
14.609517
 30
0.0
 10
10.255914
 20
14.884334
 30
0.0
 10
10.255914
 20
15.159289
 30
0.0
 10
10.255914
 20
15.434424
 30
0.0
 10
10.255914
 20
15.709825
 30
0.0
 10
10.255914
 20
15.984817
 30
0.0
 10
10.255914
 20
16.259828
 30
0.0
 10
10.255914
 20
16.535156
 30
0.0
 10
10.255914
 20
16.810108
 30
0.0
 10
10.400751
 20
16.844353
 30
0.0
 10
10.546404
 20
16.876255
 30
0.0
 10
10.546404
 20
16.608503
 30
0.0
 10
10.546404
 20
16.340894
 30
0.0
 10
10.546404
 20
16.072763
 30
0.0
 10
10.546404
 20
15.805115
 30
0.0
 10
10.546404
 20
15.537226
 30
0.0
 10
10.546404
 20
15.269330
 30
0.0
 10
10.546404
 20
15.001620
 30
0.0
 10
10.546404
 20
14.733554
 30
0.0
 10
10.546404
 20
14.465781
 30
0.0
 10
10.721140
 20
14.611549
 30
0.0
 10
10.916467
 20
14.728474
 30
0.0
 10
11.127385
 20
14.813606
 30
0.0
 10
11.127385
 20
15.083100
 30
0.0
 10
11.127385
 20
15.353009
 30
0.0
 10
11.127385
 20
15.622602
 30
0.0
 10
11.127385
 20
15.892423
 30
0.0
 10
11.127385
 20
16.162146
 30
0.0
 10
11.127385
 20
16.432043
 30
0.0
 10
11.127385
 20
16.701565
 30
0.0
 10
11.127385
 20
16.971615
 30
0.0
 10
11.269921
 20
16.987758
 30
0.0
 10
11.412914
 20
17.000289
 30
0.0
 10
11.417876
 20
17.000289
 30
0.0
 10
11.417876
 20
16.734789
 30
0.0
 10
11.417876
 20
16.468876
 30
0.0
 10
11.417876
 20
16.203279
 30
0.0
 10
11.417876
 20
15.937457
 30
0.0
 10
11.417876
 20
15.671731
 30
0.0
 10
11.417876
 20
15.405829
 30
0.0
 10
11.417876
 20
15.140301
 30
0.0
 10
11.417876
 20
14.874253
 30
0.0
 10
11.569460
 20
14.884159
 30
0.0
 10
11.786566
 20
14.867931
 30
0.0
 10
11.998857
 20
14.819654
 30
0.0
 10
11.998857
 20
15.091970
 30
0.0
 10
11.998857
 20
15.364707
 30
0.0
 10
11.998857
 20
15.637122
 30
0.0
 10
11.998857
 20
15.909768
 30
0.0
 10
11.998857
 20
16.182313
 30
0.0
 10
11.998857
 20
16.455039
 30
0.0
 10
11.998857
 20
16.727383
 30
0.0
 10
11.998857
 20
17.000261
 30
0.0
 10
12.144939
 20
16.979433
 30
0.0
 10
12.289347
 20
16.950093
 30
0.0
 10
12.289347
 20
16.668277
 30
0.0
 10
12.289347
 20
16.386030
 30
0.0
 10
12.289347
 20
16.104112
 30
0.0
 10
12.289347
 20
15.821955
 30
0.0
 10
12.289347
 20
15.539902
 30
0.0
 10
12.289347
 20
15.257666
 30
0.0
 10
12.289347
 20
14.975819
 30
0.0
 10
12.289347
 20
14.693424
 30
0.0
 10
12.465699
 20
14.576217
 30
0.0
 10
12.623549
 20
14.434429
 30
0.0
 10
12.759336
 20
14.271163
 30
0.0
 10
12.869777
 20
14.090400
 30
0.0
 10
12.869777
 20
14.356253
 30
0.0
 10
12.869777
 20
14.621966
 30
0.0
 10
12.869777
 20
14.887579
 30
0.0
 10
12.869777
 20
15.153334
 30
0.0
 10
12.869777
 20
15.418984
 30
0.0
 10
12.869777
 20
15.685207
 30
0.0
 10
12.869777
 20
15.951043
 30
0.0
 10
12.869777
 20
16.216908
 30
0.0
 10
12.869777
 20
16.483080
 30
0.0
 10
12.869777
 20
16.748900
 30
0.0
 10
13.016709
 20
16.677562
 30
0.0
 10
13.160818
 20
16.599519
 30
0.0
 10
13.160818
 20
16.324336
 30
0.0
 10
13.160818
 20
16.049084
 30
0.0
 10
13.160818
 20
15.773949
 30
0.0
 10
13.160818
 20
15.498940
 30
0.0
 10
13.160818
 20
15.223929
 30
0.0
 10
13.160818
 20
14.948624
 30
0.0
 10
13.160818
 20
14.673302
 30
0.0
 10
13.160818
 20
14.398051
 30
0.0
 10
13.160818
 20
14.122969
 30
0.0
 10
13.160818
 20
13.847689
 30
0.0
 10
13.160818
 20
13.572297
 30
0.0
 10
13.160818
 20
13.296876
 30
0.0
 10
13.160818
 20
13.021568
 30
0.0
 10
13.354093
 20
13.021568
 30
0.0
 10
13.547829
 20
13.021568
 30
0.0
 10
13.741248
 20
13.021568
 30
0.0
 10
13.741248
 20
13.286490
 30
0.0
 10
13.741248
 20
13.551723
 30
0.0
 10
13.741248
 20
13.816645
 30
0.0
 10
13.741248
 20
14.081567
 30
0.0
 10
13.741248
 20
14.346517
 30
0.0
 10
13.741248
 20
14.611354
 30
0.0
 10
13.741248
 20
14.876293
 30
0.0
 10
13.741248
 20
15.141288
 30
0.0
 10
13.741248
 20
15.406388
 30
0.0
 10
13.741248
 20
15.671420
 30
0.0
 10
13.741248
 20
15.936472
 30
0.0
 10
13.741248
 20
16.200991
 30
0.0
 10
13.889208
 20
16.075808
 30
0.0
 10
14.031739
 20
15.944123
 30
0.0
 10
14.031739
 20
15.678315
 30
0.0
 10
14.031739
 20
15.412798
 30
0.0
 10
14.031739
 20
15.147122
 30
0.0
 10
14.031739
 20
14.881469
 30
0.0
 10
14.031739
 20
14.615954
 30
0.0
 10
14.031739
 20
14.350045
 30
0.0
 10
14.031739
 20
14.084473
 30
0.0
 10
14.031739
 20
13.818507
 30
0.0
 10
14.031739
 20
13.552908
 30
0.0
 10
14.031739
 20
13.287280
 30
0.0
 10
14.031739
 20
13.021568
 30
0.0
 10
14.225197
 20
13.021568
 30
0.0
 10
14.419116
 20
13.021568
 30
0.0
 10
14.612720
 20
13.021568
 30
0.0
 10
14.612720
 20
13.299247
 30
0.0
 10
14.612720
 20
13.577377
 30
0.0
 10
14.612720
 20
13.855168
 30
0.0
 10
14.612720
 20
14.133185
 30
0.0
 10
14.612720
 20
14.411117
 30
0.0
 10
14.612720
 20
14.689219
 30
0.0
 10
14.612720
 20
14.966923
 30
0.0
 10
14.612720
 20
15.245183
 30
0.0
 10
14.719725
 20
15.073459
 30
0.0
 10
14.816695
 20
14.896464
 30
0.0
 10
14.903210
 20
14.713801
 30
0.0
 10
14.903210
 20
14.431522
 30
0.0
 10
14.903210
 20
14.149751
 30
0.0
 10
14.903210
 20
13.867416
 30
0.0
 10
14.903210
 20
13.585448
 30
0.0
 10
14.903210
 20
13.303677
 30
0.0
 10
14.903210
 20
13.021568
 30
0.0
 10
15.161288
 20
13.021568
 30
0.0
 10
15.419226
 20
13.021568
 30
0.0
 10
15.677668
 20
13.021568
 30
0.0
 10
15.935646
 20
13.021568
 30
0.0
 10
16.193853
 20
13.021568
 30
0.0
 10
16.452069
 20
13.021568
 30
0.0
 10
16.710106
 20
13.021568
 30
0.0
 10
16.968479
 20
13.021568
 30
0.0
 10
17.226582
 20
13.021568
 30
0.0
 10
17.226582
 20
13.225671
 30
0.0
 10
17.226582
 20
13.430254
 30
0.0
 10
17.226582
 20
13.634527
 30
0.0
 10
17.364907
 20
13.859175
 30
0.0
 10
17.516522
 20
14.075499
 30
0.0
 10
17.516522
 20
13.812270
 30
0.0
 10
17.516522
 20
13.548703
 30
0.0
 10
17.516522
 20
13.284910
 30
0.0
 10
17.516522
 20
13.021568
 30
0.0
 10
17.710163
 20
13.021568
 30
0.0
 10
17.904267
 20
13.021568
 30
0.0
 10
18.098054
 20
13.021568
 30
0.0
 10
18.098054
 20
13.295493
 30
0.0
 10
18.098054
 20
13.568910
 30
0.0
 10
18.098054
 20
13.842863
 30
0.0
 10
18.098054
 20
14.116477
 30
0.0
 10
18.098054
 20
14.389894
 30
0.0
 10
18.098054
 20
14.663650
 30
0.0
 10
18.240152
 20
14.766887
 30
0.0
 10
18.387993
 20
14.862639
 30
0.0
 10
18.387993
 20
14.589849
 30
0.0
 10
18.387993
 20
14.316883
 30
0.0
 10
18.387993
 20
14.044285
 30
0.0
 10
18.387993
 20
13.771235
 30
0.0
 10
18.387993
 20
13.498383
 30
0.0
 10
18.561358
 20
13.715299
 30
0.0
 10
18.803058
 20
13.839025
 30
0.0
 10
18.969525
 20
13.844951
 30
0.0
 10
18.969525
 20
14.101999
 30
0.0
 10
18.969525
 20
14.359189
 30
0.0
 10
18.969525
 20
14.616011
 30
0.0
 10
18.969525
 20
14.873307
 30
0.0
 10
18.969525
 20
15.130389
 30
0.0
 10
19.113582
 20
15.174413
 30
0.0
 10
19.259464
 20
15.210868
 30
0.0
 10
19.259464
 20
14.940270
 30
0.0
 10
19.259464
 20
14.669520
 30
0.0
 10
19.259464
 20
14.399123
 30
0.0
 10
19.259464
 20
14.128274
 30
0.0
 10
19.259464
 20
13.857623
 30
0.0
 10
19.453508
 20
13.873428
 30
0.0
 10
19.647471
 20
13.893465
 30
0.0
 10
19.840445
 20
13.918865
 30
0.0
 10
19.840445
 20
14.192000
 30
0.0
 10
19.840445
 20
14.465304
 30
0.0
 10
19.840445
 20
14.738213
 30
0.0
 10
19.840445
 20
15.011607
 30
0.0
 10
19.840445
 20
15.284787
 30
0.0
 10
19.999746
 20
15.290291
 30
0.0
 10
19.999746
 20
15.289162
 30
0.0
 10
20.130936
 20
15.281993
 30
0.0
 10
20.130936
 20
15.009412
 30
0.0
 10
20.130936
 20
14.736681
 30
0.0
 10
20.130936
 20
14.464308
 30
0.0
 10
20.130936
 20
14.191455
 30
0.0
 10
20.130936
 20
13.918829
 30
0.0
 10
20.323813
 20
13.893711
 30
0.0
 10
20.517547
 20
13.873673
 30
0.0
 10
20.711917
 20
13.857869
 30
0.0
 10
20.711917
 20
14.127701
 30
0.0
 10
20.711917
 20
14.397675
 30
0.0
 10
20.711917
 20
14.667310
 30
0.0
 10
20.711917
 20
14.937380
 30
0.0
 10
20.711917
 20
15.207252
 30
0.0
 10
20.857666
 20
15.172708
 30
0.0
 10
21.001856
 20
15.131185
 30
0.0
 10
21.001856
 20
14.874038
 30
0.0
 10
21.001856
 20
14.616736
 30
0.0
 10
21.001856
 20
14.359773
 30
0.0
 10
21.001856
 20
14.102386
 30
0.0
 10
21.001856
 20
13.845197
 30
0.0
 10
21.168323
 20
13.839270
 30
0.0
 10
21.410031
 20
13.715770
 30
0.0
 10
21.583388
 20
13.499193
 30
0.0
 10
21.583388
 20
13.773654
 30
0.0
 10
21.583388
 20
14.048256
 30
0.0
 10
21.583388
 20
14.322491
 30
0.0
 10
21.583388
 20
14.597206
 30
0.0
 10
21.583388
 20
14.871704
 30
0.0
 10
21.731619
 20
14.777151
 30
0.0
 10
21.873327
 20
14.673265
 30
0.0
 10
21.873327
 20
14.397788
 30
0.0
 10
21.873327
 20
14.122819
 30
0.0
 10
21.873327
 20
13.847285
 30
0.0
 10
21.873327
 20
13.572119
 30
0.0
 10
21.873327
 20
13.297121
 30
0.0
 10
21.873327
 20
13.021814
 30
0.0
 10
22.066785
 20
13.021814
 30
0.0
 10
22.260705
 20
13.021814
 30
0.0
 10
22.454308
 20
13.021814
 30
0.0
 10
22.454308
 20
13.277197
 30
0.0
 10
22.454308
 20
13.532918
 30
0.0
 10
22.454308
 20
13.788865
 30
0.0
 10
22.454308
 20
14.044333
 30
0.0
 10
22.606516
 20
13.811048
 30
0.0
 10
22.744799
 20
13.569748
 30
0.0
 10
22.744799
 20
13.295795
 30
0.0
 10
22.744799
 20
13.021814
 30
0.0
 10
23.002876
 20
13.021814
 30
0.0
 10
23.260815
 20
13.021814
 30
0.0
 10
23.519256
 20
13.021814
 30
0.0
 10
23.777234
 20
13.021814
 30
0.0
 10
24.035441
 20
13.021814
 30
0.0
 10
24.293658
 20
13.021814
 30
0.0
 10
24.551694
 20
13.021814
 30
0.0
 10
24.810068
 20
13.021814
 30
0.0
 10
25.068171
 20
13.021814
 30
0.0
 10
25.068171
 20
13.271496
 30
0.0
 10
25.068171
 20
13.521121
 30
0.0
 10
25.068171
 20
13.770380
 30
0.0
 10
25.068171
 20
14.019808
 30
0.0
 10
25.068171
 20
14.269123
 30
0.0
 10
25.068171
 20
14.518579
 30
0.0
 10
25.068171
 20
14.767669
 30
0.0
 10
25.068171
 20
15.017226
 30
0.0
 10
25.206066
 20
15.241350
 30
0.0
 10
25.358661
 20
15.455441
 30
0.0
 10
25.358661
 20
15.185118
 30
0.0
 10
25.358661
 20
14.914938
 30
0.0
 10
25.358661
 20
14.644225
 30
0.0
 10
25.358661
 20
14.374025
 30
0.0
 10
25.358661
 20
14.103543
 30
0.0
 10
25.358661
 20
13.833090
 30
0.0
 10
25.358661
 20
13.562805
 30
0.0
 10
25.358661
 20
13.292154
 30
0.0
 10
25.358661
 20
13.021814
 30
0.0
 10
25.552120
 20
13.021814
 30
0.0
 10
25.746039
 20
13.021814
 30
0.0
 10
25.939642
 20
13.021814
 30
0.0
 10
25.939642
 20
13.300113
 30
0.0
 10
25.939642
 20
13.578102
 30
0.0
 10
25.939642
 20
13.856232
 30
0.0
 10
25.939642
 20
14.134362
 30
0.0
 10
25.939642
 20
14.412351
 30
0.0
 10
25.939642
 20
14.690763
 30
0.0
 10
25.939642
 20
14.968791
 30
0.0
 10
25.939642
 20
15.247246
 30
0.0
 10
25.939642
 20
15.525334
 30
0.0
 10
25.939642
 20
15.803444
 30
0.0
 10
25.939642
 20
16.081622
 30
0.0
 10
26.082335
 20
16.203494
 30
0.0
 10
26.230133
 20
16.319197
 30
0.0
 10
26.230133
 20
16.044442
 30
0.0
 10
26.230133
 20
15.769747
 30
0.0
 10
26.230133
 20
15.495009
 30
0.0
 10
26.230133
 20
15.220254
 30
0.0
 10
26.230133
 20
14.945471
 30
0.0
 10
26.230133
 20
14.670753
 30
0.0
 10
26.230133
 20
14.395954
 30
0.0
 10
26.230133
 20
14.121069
 30
0.0
 10
26.230133
 20
13.846100
 30
0.0
 10
26.230133
 20
13.571159
 30
0.0
 10
26.230133
 20
13.296218
 30
0.0
 10
26.230133
 20
13.021814
 30
0.0
 10
26.423407
 20
13.021814
 30
0.0
 10
26.617143
 20
13.021814
 30
0.0
 10
26.810562
 20
13.021814
 30
0.0
 10
26.810562
 20
13.186095
 30
0.0
 10
26.789616
 20
13.422569
 30
0.0
 10
26.810562
 20
13.666748
 30
0.0
 10
26.810562
 20
13.940983
 30
0.0
 10
26.810562
 20
14.214908
 30
0.0
 10
26.810562
 20
14.489002
 30
0.0
 10
26.810562
 20
14.763068
 30
0.0
 10
26.810562
 20
15.036999
 30
0.0
 10
26.810562
 20
15.311333
 30
0.0
 10
26.810562
 20
15.585309
 30
0.0
 10
26.810562
 20
15.859696
 30
0.0
 10
26.810562
 20
16.133726
 30
0.0
 10
26.810562
 20
16.407775
 30
0.0
 10
26.810562
 20
16.681894
 30
0.0
 10
26.954604
 20
16.750838
 30
0.0
 10
27.101604
 20
16.813085
 30
0.0
 10
27.101604
 20
16.536640
 30
0.0
 10
27.101604
 20
16.260345
 30
0.0
 10
27.101604
 20
15.983507
 30
0.0
 10
27.101604
 20
15.707169
 30
0.0
 10
27.101604
 20
15.430586
 30
0.0
 10
27.101604
 20
15.153991
 30
0.0
 10
27.101604
 20
14.877588
 30
0.0
 10
27.101604
 20
14.600819
 30
0.0
 10
27.101604
 20
14.324354
 30
0.0
 10
27.269083
 20
14.504722
 30
0.0
 10
27.464429
 20
14.654413
 30
0.0
 10
27.682034
 20
14.769193
 30
0.0
 10
27.682034
 20
15.044949
 30
0.0
 10
27.682034
 20
15.321132
 30
0.0
 10
27.682034
 20
15.596987
 30
0.0
 10
27.682034
 20
15.873077
 30
0.0
 10
27.682034
 20
16.149067
 30
0.0
 10
27.682034
 20
16.425239
 30
0.0
 10
27.682034
 20
16.701023
 30
0.0
 10
27.682034
 20
16.977347
 30
0.0
 10
27.826636
 20
16.997357
 30
0.0
 10
27.972524
 20
17.008222
 30
0.0
 10
27.972524
 20
16.739555
 30
0.0
 10
27.972524
 20
16.470473
 30
0.0
 10
27.972524
 20
16.201707
 30
0.0
 10
27.972524
 20
15.932713
 30
0.0
 10
27.972524
 20
15.663820
 30
0.0
 10
27.972524
 20
15.394749
 30
0.0
 10
27.972524
 20
15.126051
 30
0.0
 10
27.972524
 20
14.856831
 30
0.0
 10
28.251440
 20
14.884376
 30
0.0
 10
28.403349
 20
14.875429
 30
0.0
 10
28.553506
 20
14.850735
 30
0.0
 10
28.553506
 20
15.117475
 30
0.0
 10
28.553506
 20
15.384626
 30
0.0
 10
28.553506
 20
15.651464
 30
0.0
 10
28.553506
 20
15.918528
 30
0.0
 10
28.553506
 20
16.185494
 30
0.0
 10
28.553506
 20
16.452637
 30
0.0
 10
28.553506
 20
16.719405
 30
0.0
 10
28.553506
 20
16.986694
 30
0.0
 10
28.699008
 20
16.971031
 30
0.0
 10
28.843994
 20
16.951981
 30
0.0
 10
28.843994
 20
16.677876
 30
0.0
 10
28.843994
 20
16.403350
 30
0.0
 10
28.843994
 20
16.129145
 30
0.0
 10
28.843994
 20
15.854707
 30
0.0
 10
28.843994
 20
15.580370
 30
0.0
 10
28.843994
 20
15.305852
 30
0.0
 10
28.843994
 20
15.031719
 30
0.0
 10
28.843994
 20
14.757049
 30
0.0
 10
29.063493
 20
14.636088
 30
0.0
 10
29.259064
 20
14.479483
 30
0.0
 10
29.424977
 20
14.291805
 30
0.0
 10
29.424977
 20
14.547301
 30
0.0
 10
29.424977
 20
14.802650
 30
0.0
 10
29.424977
 20
15.057917
 30
0.0
 10
29.424977
 20
15.313314
 30
0.0
 10
29.424977
 20
15.568612
 30
0.0
 10
29.424977
 20
15.824461
 30
0.0
 10
29.424977
 20
16.079940
 30
0.0
 10
29.424977
 20
16.335441
 30
0.0
 10
29.424977
 20
16.591242
 30
0.0
 10
29.424977
 20
16.846701
 30
0.0
 10
29.570660
 20
16.809964
 30
0.0
 10
29.715468
 20
16.771184
 30
0.0
 10
29.715468
 20
16.503417
 30
0.0
 10
29.715468
 20
16.235563
 30
0.0
 10
29.715468
 20
15.967711
 30
0.0
 10
29.715468
 20
15.699801
 30
0.0
 10
29.715468
 20
15.431746
 30
0.0
 10
29.715468
 20
15.164146
 30
0.0
 10
29.715468
 20
14.896472
 30
0.0
 10
29.715468
 20
14.628863
 30
0.0
 10
29.715468
 20
14.360893
 30
0.0
 10
29.715468
 20
14.093205
 30
0.0
 10
29.715468
 20
13.825292
 30
0.0
 10
29.715468
 20
13.557181
 30
0.0
 10
29.715468
 20
13.289747
 30
0.0
 10
29.715468
 20
13.021805
 30
0.0
 10
29.908742
 20
13.021805
 30
0.0
 10
30.102480
 20
13.021805
 30
0.0
 10
30.295898
 20
13.021805
 30
0.0
 10
30.295898
 20
13.297875
 30
0.0
 10
30.295898
 20
13.574029
 30
0.0
 10
30.295898
 20
13.850043
 30
0.0
 10
30.295898
 20
14.125943
 30
0.0
 10
30.295898
 20
14.401844
 30
0.0
 10
30.295898
 20
14.678055
 30
0.0
 10
30.295898
 20
14.954243
 30
0.0
 10
30.295898
 20
15.230406
 30
0.0
 10
30.295898
 20
15.506377
 30
0.0
 10
30.295898
 20
15.782534
 30
0.0
 10
30.295898
 20
16.058830
 30
0.0
 10
30.295898
 20
16.335134
 30
0.0
 10
30.295898
 20
16.611330
 30
0.0
 10
30.441174
 20
16.566279
 30
0.0
 10
30.586386
 20
16.519831
 30
0.0
 10
30.586386
 20
16.250794
 30
0.0
 10
30.586386
 20
15.981693
 30
0.0
 10
30.586386
 20
15.712704
 30
0.0
 10
30.586386
 20
15.443836
 30
0.0
 10
30.586386
 20
15.174969
 30
0.0
 10
30.586386
 20
14.905814
 30
0.0
 10
30.586386
 20
14.636653
 30
0.0
 10
30.586386
 20
14.367525
 30
0.0
 10
30.586386
 20
14.098596
 30
0.0
 10
30.586386
 20
13.829469
 30
0.0
 10
30.586386
 20
13.560229
 30
0.0
 10
30.586386
 20
13.290961
 30
0.0
 10
30.586386
 20
13.021805
 30
0.0
 10
30.779844
 20
13.021805
 30
0.0
 10
30.973764
 20
13.021805
 30
0.0
 10
31.167369
 20
13.021805
 30
0.0
 10
31.167369
 20
13.296831
 30
0.0
 10
31.167369
 20
13.571800
 30
0.0
 10
31.167369
 20
13.846825
 30
0.0
 10
31.167369
 20
14.121851
 30
0.0
 10
31.167369
 20
14.396905
 30
0.0
 10
31.167369
 20
14.671902
 30
0.0
 10
31.167369
 20
14.946976
 30
0.0
 10
31.167369
 20
15.222128
 30
0.0
 10
31.167369
 20
15.497394
 30
0.0
 10
31.167369
 20
15.772594
 30
0.0
 10
31.167369
 20
16.047820
 30
0.0
 10
31.167369
 20
16.322496
 30
0.0
 10
31.312541
 20
16.271151
 30
0.0
 10
31.457307
 20
16.219417
 30
0.0
 10
31.457307
 20
15.952974
 30
0.0
 10
31.457307
 20
15.686223
 30
0.0
 10
31.457307
 20
15.419783
 30
0.0
 10
31.457307
 20
15.153348
 30
0.0
 10
31.457307
 20
14.886899
 30
0.0
 10
31.457307
 20
14.620538
 30
0.0
 10
31.457307
 20
14.354092
 30
0.0
 10
31.457307
 20
14.087561
 30
0.0
 10
31.457307
 20
13.820946
 30
0.0
 10
31.457307
 20
13.554415
 30
0.0
 10
31.457307
 20
13.287828
 30
0.0
 10
31.457307
 20
13.021805
 30
0.0
 10
31.650948
 20
13.021805
 30
0.0
 10
31.845052
 20
13.021805
 30
0.0
 10
32.038840
 20
13.021805
 30
0.0
 10
32.038840
 20
13.293867
 30
0.0
 10
32.038840
 20
13.565647
 30
0.0
 10
32.038840
 20
13.837597
 30
0.0
 10
32.038840
 20
14.109518
 30
0.0
 10
32.038840
 20
14.381298
 30
0.0
 10
32.038840
 20
14.653473
 30
0.0
 10
32.038840
 20
14.925293
 30
0.0
 10
32.038840
 20
15.197524
 30
0.0
 10
32.038840
 20
15.469400
 30
0.0
 10
32.038840
 20
15.741299
 30
0.0
 10
32.038840
 20
16.013262
 30
0.0
 10
32.183631
 20
15.961892
 30
0.0
 10
32.328778
 20
15.910736
 30
0.0
 10
32.328778
 20
15.647987
 30
0.0
 10
32.328778
 20
15.385524
 30
0.0
 10
32.328778
 20
15.122905
 30
0.0
 10
32.328778
 20
14.860308
 30
0.0
 10
32.328778
 20
14.597847
 30
0.0
 10
32.328778
 20
14.334985
 30
0.0
 10
32.328778
 20
14.072490
 30
0.0
 10
32.328778
 20
13.809572
 30
0.0
 10
32.328778
 20
13.547021
 30
0.0
 10
32.328778
 20
13.284441
 30
0.0
 10
32.328778
 20
13.021805
 30
0.0
 10
32.522419
 20
13.021805
 30
0.0
 10
32.716523
 20
13.021805
 30
0.0
 10
32.910311
 20
13.021805
 30
0.0
 10
32.910311
 20
13.290537
 30
0.0
 10
32.910311
 20
13.559100
 30
0.0
 10
32.910311
 20
13.827578
 30
0.0
 10
32.910311
 20
14.096197
 30
0.0
 10
32.910311
 20
14.364731
 30
0.0
 10
32.910311
 20
14.633830
 30
0.0
 10
32.910311
 20
14.902528
 30
0.0
 10
32.910311
 20
15.171260
 30
0.0
 10
32.910311
 20
15.440306
 30
0.0
 10
32.910311
 20
15.708993
 30
0.0
 10
33.055066
 20
15.662028
 30
0.0
 10
33.200249
 20
15.616387
 30
0.0
 10
33.200249
 20
15.356926
 30
0.0
 10
33.200249
 20
15.097606
 30
0.0
 10
33.200249
 20
14.838374
 30
0.0
 10
33.200249
 20
14.579023
 30
0.0
 10
33.200249
 20
14.319745
 30
0.0
 10
33.200249
 20
14.059931
 30
0.0
 10
33.200249
 20
13.800485
 30
0.0
 10
33.200249
 20
13.541009
 30
0.0
 10
33.200249
 20
13.281224
 30
0.0
 10
33.200249
 20
13.021805
 30
0.0
 10
33.393707
 20
13.021805
 30
0.0
 10
33.587628
 20
13.021805
 30
0.0
 10
33.781232
 20
13.021805
 30
0.0
 10
33.781232
 20
13.290904
 30
0.0
 10
33.781232
 20
13.559862
 30
0.0
 10
33.781232
 20
13.829328
 30
0.0
 10
33.781232
 20
14.098342
 30
0.0
 10
33.781232
 20
14.367582
 30
0.0
 10
33.781232
 20
14.636822
 30
0.0
 10
33.781232
 20
14.905873
 30
0.0
 10
33.781232
 20
15.175282
 30
0.0
 10
33.781232
 20
15.444409
 30
0.0
 10
33.926582
 20
15.403829
 30
0.0
 10
34.071721
 20
15.363931
 30
0.0
 10
34.071721
 20
15.103770
 30
0.0
 10
34.071721
 20
14.843750
 30
0.0
 10
34.071721
 20
14.583228
 30
0.0
 10
34.071721
 20
14.323160
 30
0.0
 10
34.071721
 20
14.062867
 30
0.0
 10
34.071721
 20
13.802573
 30
0.0
 10
34.071721
 20
13.542449
 30
0.0
 10
34.071721
 20
13.281986
 30
0.0
 10
34.071721
 20
13.021805
 30
0.0
 10
34.265178
 20
13.021805
 30
0.0
 10
34.459099
 20
13.021805
 30
0.0
 10
34.652703
 20
13.021805
 30
0.0
 10
34.652703
 20
13.294742
 30
0.0
 10
34.652703
 20
13.568103
 30
0.0
 10
34.652703
 20
13.841125
 30
0.0
 10
34.652703
 20
14.114400
 30
0.0
 10
34.652703
 20
14.387563
 30
0.0
 10
34.652703
 20
14.660924
 30
0.0
 10
34.652703
 20
14.933886
 30
0.0
 10
34.652703
 20
15.207385
 30
0.0
 10
34.797695
 20
15.171376
 30
0.0
 10
34.942641
 20
15.136279
 30
0.0
 10
34.947693
 20
15.295828
 30
0.0
 10
34.950233
 20
15.455983
 30
0.0
 10
34.928784
 20
15.721049
 30
0.0
 10
34.875151
 20
15.981933
 30
0.0
 10
34.800523
 20
16.237801
 30
0.0
 10
34.711699
 20
16.489224
 30
0.0
 10
34.613212
 20
16.736722
 30
0.0
 10
34.508104
 20
16.981279
 30
0.0
 10
34.398444
 20
17.224297
 30
0.0
 10
34.286537
 20
17.465795
 30
0.0
 10
34.174035
 20
17.707053
 30
0.0
 10
34.062910
 20
17.949044
 30
0.0
 10
33.955696
 20
18.192813
 30
0.0
 10
33.856083
 20
18.439817
 30
0.0
 10
33.770440
 20
18.692276
 30
0.0
 10
33.712867
 20
18.952177
 30
0.0
 10
33.722631
 20
19.216823
 30
0.0
 10
33.885259
 20
19.417601
 30
0.0
 10
34.143831
 20
19.472138
 30
0.0
 10
34.399104
 20
19.532161
 30
0.0
 10
34.313173
 20
19.759198
 30
0.0
 10
34.111426
 20
19.934387
 30
0.0
 10
33.896921
 20
20.093591
 30
0.0
 10
33.677803
 20
20.246454
 30
0.0
 10
33.456716
 20
20.396825
 30
0.0
 10
33.235496
 20
20.546634
 30
0.0
 10
33.014993
 20
20.697660
 30
0.0
 10
32.796316
 20
20.851367
 30
0.0
 10
32.580879
 20
21.009335
 30
0.0
 10
32.370208
 20
21.174014
 30
0.0
 10
32.167590
 20
21.348704
 30
0.0
 10
31.980189
 20
21.538710
 30
0.0
 10
31.825813
 20
21.756126
 30
0.0
 10
31.777595
 20
22.013453
 30
0.0
 10
31.940624
 20
22.216639
 30
0.0
 10
31.976232
 20
22.426198
 30
0.0
 10
31.738954
 20
22.547993
 30
0.0
 10
31.484691
 20
22.631825
 30
0.0
 10
31.226571
 20
22.702507
 30
0.0
 10
30.966765
 20
22.766967
 30
0.0
 10
30.706523
 20
22.828333
 30
0.0
 10
30.445766
 20
22.888729
 30
0.0
 10
30.185140
 20
22.949618
 30
0.0
 10
29.925207
 20
23.012401
 30
0.0
 10
29.666144
 20
23.078772
 30
0.0
 10
29.408416
 20
23.150987
 30
0.0
 10
29.153530
 20
23.232444
 30
0.0
 10
28.904669
 20
23.329580
 30
0.0
 10
28.670969
 20
23.459058
 30
0.0
 10
28.527764
 20
23.673075
 30
0.0
 10
28.668610
 20
23.890680
 30
0.0
 10
28.527976
 20
23.982230
 30
0.0
 10
28.259653
 20
23.958890
 30
0.0
 10
27.992236
 20
23.924555
 30
0.0
 10
27.725183
 20
23.886630
 30
0.0
 10
27.458397
 20
23.847694
 30
0.0
 10
27.191649
 20
23.809134
 30
0.0
 10
26.924511
 20
23.771912
 30
0.0
 10
26.656955
 20
23.736953
 30
0.0
 10
26.388890
 20
23.705237
 30
0.0
 10
26.120716
 20
23.678003
 30
0.0
 10
25.851617
 20
23.656836
 30
0.0
 10
25.582182
 20
23.644221
 30
0.0
 10
25.312557
 20
23.644421
 30
0.0
 10
25.043963
 20
23.665926
 30
0.0
 10
24.783160
 20
23.731007
 30
0.0
 10
24.596331
 20
23.911711
 30
0.0
 10
24.651905
 20
24.169035
 30
0.0
 10
24.641338
 20
24.314908
 30
0.0
 10
24.478273
 20
24.335510
 30
0.0
 10
24.217889
 20
24.283062
 30
0.0
 10
23.966351
 20
24.196115
 30
0.0
 10
23.719968
 20
24.095119
 30
0.0
 10
23.476766
 20
23.986534
 30
0.0
 10
23.235554
 20
23.873456
 30
0.0
 10
22.995748
 20
23.757920
 30
0.0
 10
22.756455
 20
23.641325
 30
0.0
 10
22.517064
 20
23.525244
 30
0.0
 10
22.276336
 20
23.411641
 30
0.0
 10
22.032479
 20
23.304730
 30
0.0
 10
21.780349
 20
23.220918
 30
0.0
 10
21.726055
 20
23.376397
 30
0.0
 10
21.759961
 20
23.588645
 30
0.0
 10
21.514650
 20
23.516927
 30
0.0
 10
21.283922
 20
23.402128
 30
0.0
 10
21.059008
 20
23.276017
 30
0.0
 10
20.837416
 20
23.143866
 30
0.0
 10
20.618444
 20
23.007945
 30
0.0
 10
20.400921
 20
22.868857
 30
0.0
 10
20.185344
 20
22.727614
 30
0.0
 10
19.970985
 20
22.583748
 30
0.0
 10
19.756951
 20
22.727399
 30
0.0
 10
19.541189
 20
22.868767
 30
0.0
 10
19.323836
 20
23.007750
 30
0.0
 10
19.104705
 20
23.143776
 30
0.0
 10
18.883034
 20
23.275974
 30
0.0
 10
18.657990
 20
23.402159
 30
0.0
 10
18.427379
 20
23.516902
 30
0.0
 10
18.181412
 20
23.588586
 30
0.0
 10
18.215916
 20
23.376397
 30
0.0
 10
18.161274
 20
23.220983
 30
0.0
 10
17.909186
 20
23.304854
 30
0.0
 10
17.665265
 20
23.411811
 30
0.0
 10
17.424337
 20
23.525518
 30
0.0
 10
17.184815
 20
23.641667
 30
0.0
 10
16.945424
 20
23.758309
 30
0.0
 10
16.705595
 20
23.873848
 30
0.0
 10
16.464837
 20
23.986703
 30
0.0
 10
16.221712
 20
24.095243
 30
0.0
 10
15.975614
 20
24.196118
 30
0.0
 10
15.724195
 20
24.283028
 30
0.0
 10
15.463698
 20
24.335510
 30
0.0
 10
15.300630
 20
24.314908
 30
0.0
 10
15.290064
 20
24.169035
 30
0.0
 10
15.345579
 20
23.911446
 30
0.0
 10
15.158482
 20
23.730852
 30
0.0
 10
14.897497
 20
23.665845
 30
0.0
 10
14.628651
 20
23.644396
 30
0.0
 10
14.359287
 20
23.644240
 30
0.0
 10
14.090052
 20
23.656856
 30
0.0
 10
13.821495
 20
23.677994
 30
0.0
 10
13.553384
 20
23.705229
 30
0.0
 10
13.285826
 20
23.736886
 30
0.0
 10
13.018404
 20
23.771825
 30
0.0
 10
12.751308
 20
23.809038
 30
0.0
 10
12.484372
 20
23.847630
 30
0.0
 10
12.217742
 20
23.886548
 30
0.0
 10
11.950819
 20
23.924462
 30
0.0
 10
11.683324
 20
23.958825
 30
0.0
 10
11.414483
 20
23.982221
 30
0.0
 10
11.273909
 20
23.890671
 30
0.0
 10
11.414739
 20
23.673205
 30
0.0
 10
11.271636
 20
23.459151
 30
0.0
 10
11.038036
 20
23.329695
 30
0.0
 10
10.788805
 20
23.232416
 30
0.0
 10
10.533867
 20
23.150958
 30
0.0
 10
10.276234
 20
23.078780
 30
0.0
 10
10.016923
 20
23.012353
 30
0.0
 10
9.756807
 20
22.949539
 30
0.0
 10
9.496267
 20
22.888678
 30
0.0
 10
9.235535
 20
22.828296
 30
0.0
 10
8.975189
 20
22.766913
 30
0.0
 10
8.715661
 20
22.702530
 30
0.0
 10
8.457566
 20
22.631870
 30
0.0
 10
8.203330
 20
22.548078
 30
0.0
 10
7.966107
 20
22.426468
 30
0.0
 10
8.001344
 20
22.216631
 30
0.0
 10
8.164359
 20
22.013552
 30
0.0
 10
8.116333
 20
21.756377
 30
0.0
 10
7.962056
 20
21.538928
 30
0.0
 10
7.774561
 20
21.348758
 30
0.0
 10
7.572043
 20
21.174113
 30
0.0
 10
7.361622
 20
21.009589
 30
0.0
 10
7.145954
 20
20.851417
 30
0.0
 10
6.927386
 20
20.697761
 30
0.0
 10
6.706903
 20
20.546722
 30
0.0
 10
6.485531
 20
20.396786
 30
0.0
 10
6.264557
 20
20.246468
 30
0.0
 10
6.045425
 20
20.093572
 30
0.0
 10
5.830796
 20
19.934237
 30
0.0
 10
5.629171
 20
19.759085
 30
0.0
 10
5.543428
 20
19.532124
 30
0.0
 10
5.798688
 20
19.472130
 30
0.0
 10
6.057133
 20
19.417652
 30
0.0
 10
6.219780
 20
19.217012
 30
0.0
 10
6.229554
 20
18.952285
 30
0.0
 10
6.171954
 20
18.692395
 30
0.0
 10
6.086286
 20
18.439964
 30
0.0
 10
5.986626
 20
18.192935
 30
0.0
 10
5.879441
 20
17.949309
 30
0.0
 10
5.768160
 20
17.707067
 30
0.0
 10
5.655448
 20
17.465442
 30
0.0
 10
5.543462
 20
17.223837
 30
0.0
 10
5.433979
 20
16.981281
 30
0.0
 10
5.328865
 20
16.736784
 30
0.0
 10
5.230362
 20
16.489326
 30
0.0
 10
5.141554
 20
16.238044
 30
0.0
 10
5.066867
 20
15.982093
 30
0.0
 10
5.013229
 20
15.721379
 30
0.0
 10
4.991707
 20
15.455975
 30
0.0
 10
4.996175
 20
15.176769
 30
0.0
 10
5.008759
 20
14.897386
 30
0.0
 10
5.028088
 20
14.618667
 30
0.0
 10
5.028088
 20
14.884359
 30
0.0
 10
5.028088
 20
15.150051
 30
0.0
 10
5.173513
 20
15.191956
 30
0.0
 10
5.318579
 20
15.233835
 30
0.0
 10
5.318579
 20
14.957593
 30
0.0
 10
5.318579
 20
14.680925
 30
0.0
 10
5.318579
 20
14.404573
 30
0.0
 10
5.318579
 20
14.127995
 30
0.0
 10
5.318579
 20
13.851530
 30
0.0
 10
5.318579
 20
13.574868
 30
0.0
 10
5.318579
 20
13.298600
 30
0.0
 10
5.318579
 20
13.021797
 30
0.0
 10
5.318579
 20
13.021797
 30
0.0
  0
ENDSEC
  0
SECTION
  2
OBJECTS
  0
DICTIONARY
  5
C
330
0
100
AcDbDictionary
  3
ACAD_GROUP
350
D
  3
ACAD_MLINESTYLE
350
17
  0
DICTIONARY
  5
D
330
C
100
AcDbDictionary
  0
DICTIONARY
  5
1A
330
C
100
AcDbDictionary
  0
DICTIONARY
  5
17
330
C
100
AcDbDictionary
  3
STANDARD
350
18
  0
DICTIONARY
  5
19
330
C
100
AcDbDictionary
  0
ENDSEC
  0
EOF
