ISO-10303-21;
HEADER;
/* Generated by software containing ST-Developer
 * from STEP Tools, Inc. (www.steptools.com) 
 */

FILE_DESCRIPTION(
/* description */ (''),
/* implementation_level */ '2;1');

FILE_NAME(
/* name */ 
'C:/Users/Rogerio/Google Drive/Tesla_Works/_STL_Files/Standoff_6X13.st
ep',
/* time_stamp */ '2018-01-04T18:22:19-02:00',
/* author */ ('stz.rogerio@gmail.com'),
/* organization */ (''),
/* preprocessor_version */ 'ST-DEVELOPER v16.13',
/* originating_system */ 'Autodesk Translation Framework v6.5.0.72',
/* authorisation */ '');

FILE_SCHEMA (('AUTOMOTIVE_DESIGN { 1 0 10303 214 3 1 1 }'));
ENDSEC;

DATA;
#10=MECHANICAL_DESIGN_GEOMETRIC_PRESENTATION_REPRESENTATION('',(#13),#130);
#11=SHAPE_REPRESENTATION_RELATIONSHIP('SRR','None',#137,#12);
#12=ADVANCED_BREP_SHAPE_REPRESENTATION('',(#14),#129);
#13=STYLED_ITEM('',(#146),#14);
#14=MANIFOLD_SOLID_BREP('Body1',#68);
#15=FACE_BOUND('',#27,.T.);
#16=PLANE('',#89);
#17=CYLINDRICAL_SURFACE('',#85,3.);
#18=CYLINDRICAL_SURFACE('',#87,2.);
#19=FACE_OUTER_BOUND('',#23,.T.);
#20=FACE_OUTER_BOUND('',#24,.T.);
#21=FACE_OUTER_BOUND('',#25,.T.);
#22=FACE_OUTER_BOUND('',#26,.T.);
#23=EDGE_LOOP('',(#49,#50,#51,#52));
#24=EDGE_LOOP('',(#53,#54,#55,#56));
#25=EDGE_LOOP('',(#57,#58,#59,#60));
#26=EDGE_LOOP('',(#61));
#27=EDGE_LOOP('',(#62));
#28=LINE('',#116,#31);
#29=LINE('',#120,#32);
#30=LINE('',#124,#33);
#31=VECTOR('',#96,2.5);
#32=VECTOR('',#101,3.);
#33=VECTOR('',#106,2.);
#34=CIRCLE('',#83,2.);
#35=CIRCLE('',#84,3.);
#36=CIRCLE('',#86,3.);
#37=CIRCLE('',#88,2.);
#38=VERTEX_POINT('',#113);
#39=VERTEX_POINT('',#115);
#40=VERTEX_POINT('',#119);
#41=VERTEX_POINT('',#123);
#42=EDGE_CURVE('',#38,#38,#34,.T.);
#43=EDGE_CURVE('',#38,#39,#28,.T.);
#44=EDGE_CURVE('',#39,#39,#35,.T.);
#45=EDGE_CURVE('',#39,#40,#29,.T.);
#46=EDGE_CURVE('',#40,#40,#36,.T.);
#47=EDGE_CURVE('',#38,#41,#30,.T.);
#48=EDGE_CURVE('',#41,#41,#37,.T.);
#49=ORIENTED_EDGE('',*,*,#42,.T.);
#50=ORIENTED_EDGE('',*,*,#43,.T.);
#51=ORIENTED_EDGE('',*,*,#44,.T.);
#52=ORIENTED_EDGE('',*,*,#43,.F.);
#53=ORIENTED_EDGE('',*,*,#44,.F.);
#54=ORIENTED_EDGE('',*,*,#45,.T.);
#55=ORIENTED_EDGE('',*,*,#46,.T.);
#56=ORIENTED_EDGE('',*,*,#45,.F.);
#57=ORIENTED_EDGE('',*,*,#42,.F.);
#58=ORIENTED_EDGE('',*,*,#47,.T.);
#59=ORIENTED_EDGE('',*,*,#48,.T.);
#60=ORIENTED_EDGE('',*,*,#47,.F.);
#61=ORIENTED_EDGE('',*,*,#46,.F.);
#62=ORIENTED_EDGE('',*,*,#48,.F.);
#63=CONICAL_SURFACE('',#82,2.5,0.785398163397448);
#64=ADVANCED_FACE('',(#19),#63,.T.);
#65=ADVANCED_FACE('',(#20),#17,.T.);
#66=ADVANCED_FACE('',(#21),#18,.F.);
#67=ADVANCED_FACE('',(#22,#15),#16,.F.);
#68=CLOSED_SHELL('',(#64,#65,#66,#67));
#69=DERIVED_UNIT_ELEMENT(#71,1.);
#70=DERIVED_UNIT_ELEMENT(#132,3.);
#71=(
MASS_UNIT()
NAMED_UNIT(*)
SI_UNIT(.KILO.,.GRAM.)
);
#72=DERIVED_UNIT((#69,#70));
#73=MEASURE_REPRESENTATION_ITEM('density measure',
POSITIVE_RATIO_MEASURE(7850.),#72);
#74=PROPERTY_DEFINITION_REPRESENTATION(#79,#76);
#75=PROPERTY_DEFINITION_REPRESENTATION(#80,#77);
#76=REPRESENTATION('material name',(#78),#129);
#77=REPRESENTATION('density',(#73),#129);
#78=DESCRIPTIVE_REPRESENTATION_ITEM('Steel','Steel');
#79=PROPERTY_DEFINITION('material property','material name',#139);
#80=PROPERTY_DEFINITION('material property','density of part',#139);
#81=AXIS2_PLACEMENT_3D('placement',#111,#90,#91);
#82=AXIS2_PLACEMENT_3D('',#112,#92,#93);
#83=AXIS2_PLACEMENT_3D('',#114,#94,#95);
#84=AXIS2_PLACEMENT_3D('',#117,#97,#98);
#85=AXIS2_PLACEMENT_3D('',#118,#99,#100);
#86=AXIS2_PLACEMENT_3D('',#121,#102,#103);
#87=AXIS2_PLACEMENT_3D('',#122,#104,#105);
#88=AXIS2_PLACEMENT_3D('',#125,#107,#108);
#89=AXIS2_PLACEMENT_3D('',#126,#109,#110);
#90=DIRECTION('axis',(0.,0.,1.));
#91=DIRECTION('refdir',(1.,0.,0.));
#92=DIRECTION('center_axis',(0.,0.,-1.));
#93=DIRECTION('ref_axis',(1.,0.,0.));
#94=DIRECTION('center_axis',(0.,0.,-1.));
#95=DIRECTION('ref_axis',(1.,0.,0.));
#96=DIRECTION('',(-0.707106781186547,-8.65956056235493E-17,-0.707106781186548));
#97=DIRECTION('center_axis',(0.,0.,1.));
#98=DIRECTION('ref_axis',(1.,0.,0.));
#99=DIRECTION('center_axis',(0.,0.,1.));
#100=DIRECTION('ref_axis',(1.,0.,0.));
#101=DIRECTION('',(0.,0.,-1.));
#102=DIRECTION('center_axis',(0.,0.,1.));
#103=DIRECTION('ref_axis',(1.,0.,0.));
#104=DIRECTION('center_axis',(0.,0.,1.));
#105=DIRECTION('ref_axis',(1.,0.,0.));
#106=DIRECTION('',(0.,0.,-1.));
#107=DIRECTION('center_axis',(0.,0.,-1.));
#108=DIRECTION('ref_axis',(1.,0.,0.));
#109=DIRECTION('center_axis',(0.,0.,1.));
#110=DIRECTION('ref_axis',(1.,0.,0.));
#111=CARTESIAN_POINT('',(0.,0.,0.));
#112=CARTESIAN_POINT('Origin',(0.,0.,12.));
#113=CARTESIAN_POINT('',(-2.,-2.44929359829471E-16,12.5));
#114=CARTESIAN_POINT('Origin',(0.,0.,12.5));
#115=CARTESIAN_POINT('',(-3.,-3.67394039744206E-16,11.5));
#116=CARTESIAN_POINT('',(-2.5,-3.06161699786838E-16,12.));
#117=CARTESIAN_POINT('Origin',(0.,0.,11.5));
#118=CARTESIAN_POINT('Origin',(0.,0.,0.));
#119=CARTESIAN_POINT('',(-3.,-3.67394039744206E-16,0.));
#120=CARTESIAN_POINT('',(-3.,-3.67394039744206E-16,0.));
#121=CARTESIAN_POINT('Origin',(0.,0.,0.));
#122=CARTESIAN_POINT('Origin',(0.,0.,0.));
#123=CARTESIAN_POINT('',(-2.,-2.44929359829471E-16,0.));
#124=CARTESIAN_POINT('',(-2.,-2.44929359829471E-16,0.));
#125=CARTESIAN_POINT('Origin',(0.,0.,0.));
#126=CARTESIAN_POINT('Origin',(0.,0.,0.));
#127=UNCERTAINTY_MEASURE_WITH_UNIT(LENGTH_MEASURE(0.01),#131,
'DISTANCE_ACCURACY_VALUE',
'Maximum model space distance between geometric entities at asserted c
onnectivities');
#128=UNCERTAINTY_MEASURE_WITH_UNIT(LENGTH_MEASURE(0.01),#131,
'DISTANCE_ACCURACY_VALUE',
'Maximum model space distance between geometric entities at asserted c
onnectivities');
#129=(
GEOMETRIC_REPRESENTATION_CONTEXT(3)
GLOBAL_UNCERTAINTY_ASSIGNED_CONTEXT((#127))
GLOBAL_UNIT_ASSIGNED_CONTEXT((#131,#134,#133))
REPRESENTATION_CONTEXT('','3D')
);
#130=(
GEOMETRIC_REPRESENTATION_CONTEXT(3)
GLOBAL_UNCERTAINTY_ASSIGNED_CONTEXT((#128))
GLOBAL_UNIT_ASSIGNED_CONTEXT((#131,#134,#133))
REPRESENTATION_CONTEXT('','3D')
);
#131=(
LENGTH_UNIT()
NAMED_UNIT(*)
SI_UNIT(.MILLI.,.METRE.)
);
#132=(
LENGTH_UNIT()
NAMED_UNIT(*)
SI_UNIT($,.METRE.)
);
#133=(
NAMED_UNIT(*)
SI_UNIT($,.STERADIAN.)
SOLID_ANGLE_UNIT()
);
#134=(
NAMED_UNIT(*)
PLANE_ANGLE_UNIT()
SI_UNIT($,.RADIAN.)
);
#135=SHAPE_DEFINITION_REPRESENTATION(#136,#137);
#136=PRODUCT_DEFINITION_SHAPE('',$,#139);
#137=SHAPE_REPRESENTATION('',(#81),#129);
#138=PRODUCT_DEFINITION_CONTEXT('part definition',#143,'design');
#139=PRODUCT_DEFINITION('Standoff_6X13','Standoff_6X13 v4',#140,#138);
#140=PRODUCT_DEFINITION_FORMATION('',$,#145);
#141=PRODUCT_RELATED_PRODUCT_CATEGORY('Standoff_6X13 v4',
'Standoff_6X13 v4',(#145));
#142=APPLICATION_PROTOCOL_DEFINITION('international standard',
'automotive_design',2009,#143);
#143=APPLICATION_CONTEXT(
'Core Data for Automotive Mechanical Design Process');
#144=PRODUCT_CONTEXT('part definition',#143,'mechanical');
#145=PRODUCT('Standoff_6X13','Standoff_6X13 v4',$,(#144));
#146=PRESENTATION_STYLE_ASSIGNMENT((#147));
#147=SURFACE_STYLE_USAGE(.BOTH.,#148);
#148=SURFACE_SIDE_STYLE('',(#149));
#149=SURFACE_STYLE_FILL_AREA(#150);
#150=FILL_AREA_STYLE('Steel - Satin',(#151));
#151=FILL_AREA_STYLE_COLOUR('Steel - Satin',#152);
#152=COLOUR_RGB('Steel - Satin',0.627450980392157,0.627450980392157,0.627450980392157);
ENDSEC;
END-ISO-10303-21;
