ISO-10303-21;
HEADER;
/* Generated by software containing ST-Developer
 * from STEP Tools, Inc. (www.steptools.com) 
 */

FILE_DESCRIPTION(
/* description */ (''),
/* implementation_level */ '2;1');

FILE_NAME(
/* name */ 
'C:/Users/Rogerio/Google Drive/Tesla_Works/_STL_Files/Temp_Buttom.step',

/* time_stamp */ '2018-01-04T18:21:53-02:00',
/* author */ ('stz.rogerio@gmail.com'),
/* organization */ (''),
/* preprocessor_version */ 'ST-DEVELOPER v16.13',
/* originating_system */ 'Autodesk Translation Framework v6.5.0.72',
/* authorisation */ '');

FILE_SCHEMA (('AUTOMOTIVE_DESIGN { 1 0 10303 214 3 1 1 }'));
ENDSEC;

DATA;
#10=MECHANICAL_DESIGN_GEOMETRIC_PRESENTATION_REPRESENTATION('',(#13),#157);
#11=SHAPE_REPRESENTATION_RELATIONSHIP('SRR','None',#164,#12);
#12=ADVANCED_BREP_SHAPE_REPRESENTATION('',(#14),#156);
#13=STYLED_ITEM('',(#173),#14);
#14=MANIFOLD_SOLID_BREP('Body1',#80);
#15=FACE_BOUND('',#37,.T.);
#16=PLANE('',#100);
#17=PLANE('',#104);
#18=PLANE('',#105);
#19=LINE('',#144,#21);
#20=LINE('',#150,#22);
#21=VECTOR('',#120,2.5);
#22=VECTOR('',#127,1.75);
#23=CYLINDRICAL_SURFACE('',#98,2.5);
#24=CYLINDRICAL_SURFACE('',#101,1.75);
#25=FACE_OUTER_BOUND('',#31,.T.);
#26=FACE_OUTER_BOUND('',#32,.T.);
#27=FACE_OUTER_BOUND('',#33,.T.);
#28=FACE_OUTER_BOUND('',#34,.T.);
#29=FACE_OUTER_BOUND('',#35,.T.);
#30=FACE_OUTER_BOUND('',#36,.T.);
#31=EDGE_LOOP('',(#57,#58,#59,#60));
#32=EDGE_LOOP('',(#61,#62,#63,#64));
#33=EDGE_LOOP('',(#65));
#34=EDGE_LOOP('',(#66,#67,#68,#69));
#35=EDGE_LOOP('',(#70));
#36=EDGE_LOOP('',(#71));
#37=EDGE_LOOP('',(#72));
#38=CIRCLE('',#95,2.5);
#39=CIRCLE('',#96,1.);
#40=CIRCLE('',#97,1.5);
#41=CIRCLE('',#99,2.5);
#42=CIRCLE('',#102,1.75);
#43=CIRCLE('',#103,1.75);
#44=VERTEX_POINT('',#136);
#45=VERTEX_POINT('',#138);
#46=VERTEX_POINT('',#142);
#47=VERTEX_POINT('',#147);
#48=VERTEX_POINT('',#149);
#49=EDGE_CURVE('',#44,#44,#38,.T.);
#50=EDGE_CURVE('',#44,#45,#39,.T.);
#51=EDGE_CURVE('',#45,#45,#40,.T.);
#52=EDGE_CURVE('',#46,#46,#41,.T.);
#53=EDGE_CURVE('',#46,#44,#19,.T.);
#54=EDGE_CURVE('',#47,#47,#42,.T.);
#55=EDGE_CURVE('',#47,#48,#20,.T.);
#56=EDGE_CURVE('',#48,#48,#43,.T.);
#57=ORIENTED_EDGE('',*,*,#49,.T.);
#58=ORIENTED_EDGE('',*,*,#50,.T.);
#59=ORIENTED_EDGE('',*,*,#51,.T.);
#60=ORIENTED_EDGE('',*,*,#50,.F.);
#61=ORIENTED_EDGE('',*,*,#52,.F.);
#62=ORIENTED_EDGE('',*,*,#53,.T.);
#63=ORIENTED_EDGE('',*,*,#49,.F.);
#64=ORIENTED_EDGE('',*,*,#53,.F.);
#65=ORIENTED_EDGE('',*,*,#51,.F.);
#66=ORIENTED_EDGE('',*,*,#54,.F.);
#67=ORIENTED_EDGE('',*,*,#55,.T.);
#68=ORIENTED_EDGE('',*,*,#56,.F.);
#69=ORIENTED_EDGE('',*,*,#55,.F.);
#70=ORIENTED_EDGE('',*,*,#54,.T.);
#71=ORIENTED_EDGE('',*,*,#52,.T.);
#72=ORIENTED_EDGE('',*,*,#56,.T.);
#73=TOROIDAL_SURFACE('',#94,1.5,1.);
#74=ADVANCED_FACE('',(#25),#73,.T.);
#75=ADVANCED_FACE('',(#26),#23,.T.);
#76=ADVANCED_FACE('',(#27),#16,.F.);
#77=ADVANCED_FACE('',(#28),#24,.T.);
#78=ADVANCED_FACE('',(#29),#17,.T.);
#79=ADVANCED_FACE('',(#30,#15),#18,.T.);
#80=CLOSED_SHELL('',(#74,#75,#76,#77,#78,#79));
#81=DERIVED_UNIT_ELEMENT(#83,1.);
#82=DERIVED_UNIT_ELEMENT(#159,3.);
#83=(
MASS_UNIT()
NAMED_UNIT(*)
SI_UNIT(.KILO.,.GRAM.)
);
#84=DERIVED_UNIT((#81,#82));
#85=MEASURE_REPRESENTATION_ITEM('density measure',
POSITIVE_RATIO_MEASURE(7850.),#84);
#86=PROPERTY_DEFINITION_REPRESENTATION(#91,#88);
#87=PROPERTY_DEFINITION_REPRESENTATION(#92,#89);
#88=REPRESENTATION('material name',(#90),#156);
#89=REPRESENTATION('density',(#85),#156);
#90=DESCRIPTIVE_REPRESENTATION_ITEM('Steel','Steel');
#91=PROPERTY_DEFINITION('material property','material name',#166);
#92=PROPERTY_DEFINITION('material property','density of part',#166);
#93=AXIS2_PLACEMENT_3D('placement',#134,#106,#107);
#94=AXIS2_PLACEMENT_3D('',#135,#108,#109);
#95=AXIS2_PLACEMENT_3D('',#137,#110,#111);
#96=AXIS2_PLACEMENT_3D('',#139,#112,#113);
#97=AXIS2_PLACEMENT_3D('',#140,#114,#115);
#98=AXIS2_PLACEMENT_3D('',#141,#116,#117);
#99=AXIS2_PLACEMENT_3D('',#143,#118,#119);
#100=AXIS2_PLACEMENT_3D('',#145,#121,#122);
#101=AXIS2_PLACEMENT_3D('',#146,#123,#124);
#102=AXIS2_PLACEMENT_3D('',#148,#125,#126);
#103=AXIS2_PLACEMENT_3D('',#151,#128,#129);
#104=AXIS2_PLACEMENT_3D('',#152,#130,#131);
#105=AXIS2_PLACEMENT_3D('',#153,#132,#133);
#106=DIRECTION('axis',(0.,0.,1.));
#107=DIRECTION('refdir',(1.,0.,0.));
#108=DIRECTION('center_axis',(0.,0.,1.));
#109=DIRECTION('ref_axis',(1.,0.,0.));
#110=DIRECTION('center_axis',(0.,0.,-1.));
#111=DIRECTION('ref_axis',(1.,0.,0.));
#112=DIRECTION('center_axis',(1.22464679914735E-16,-1.,0.));
#113=DIRECTION('ref_axis',(-1.,-1.22464679914735E-16,0.));
#114=DIRECTION('center_axis',(0.,0.,1.));
#115=DIRECTION('ref_axis',(1.,0.,0.));
#116=DIRECTION('center_axis',(0.,0.,1.));
#117=DIRECTION('ref_axis',(1.,0.,0.));
#118=DIRECTION('center_axis',(0.,0.,1.));
#119=DIRECTION('ref_axis',(1.,0.,0.));
#120=DIRECTION('',(0.,0.,-1.));
#121=DIRECTION('center_axis',(0.,0.,1.));
#122=DIRECTION('ref_axis',(1.,0.,0.));
#123=DIRECTION('center_axis',(0.,0.,1.));
#124=DIRECTION('ref_axis',(1.,0.,0.));
#125=DIRECTION('center_axis',(0.,0.,1.));
#126=DIRECTION('ref_axis',(1.,0.,0.));
#127=DIRECTION('',(0.,0.,-1.));
#128=DIRECTION('center_axis',(0.,0.,-1.));
#129=DIRECTION('ref_axis',(1.,0.,0.));
#130=DIRECTION('center_axis',(0.,0.,1.));
#131=DIRECTION('ref_axis',(1.,0.,0.));
#132=DIRECTION('center_axis',(0.,0.,1.));
#133=DIRECTION('ref_axis',(1.,0.,0.));
#134=CARTESIAN_POINT('',(0.,0.,0.));
#135=CARTESIAN_POINT('Origin',(0.,0.,1.));
#136=CARTESIAN_POINT('',(-2.5,3.06161699786838E-16,1.));
#137=CARTESIAN_POINT('Origin',(0.,0.,1.));
#138=CARTESIAN_POINT('',(-1.5,-1.83697019872103E-16,0.));
#139=CARTESIAN_POINT('Origin',(-1.5,-1.83697019872103E-16,1.));
#140=CARTESIAN_POINT('Origin',(0.,0.,0.));
#141=CARTESIAN_POINT('Origin',(0.,0.,0.));
#142=CARTESIAN_POINT('',(-2.5,-3.06161699786838E-16,4.));
#143=CARTESIAN_POINT('Origin',(0.,0.,4.));
#144=CARTESIAN_POINT('',(-2.5,-3.06161699786838E-16,0.));
#145=CARTESIAN_POINT('Origin',(0.,0.,0.));
#146=CARTESIAN_POINT('Origin',(0.,0.,0.));
#147=CARTESIAN_POINT('',(-1.75,-2.14313189850787E-16,7.));
#148=CARTESIAN_POINT('Origin',(0.,0.,7.));
#149=CARTESIAN_POINT('',(-1.75,2.14313189850787E-16,4.));
#150=CARTESIAN_POINT('',(-1.75,-2.14313189850787E-16,0.));
#151=CARTESIAN_POINT('Origin',(0.,0.,4.));
#152=CARTESIAN_POINT('Origin',(0.,0.,7.));
#153=CARTESIAN_POINT('Origin',(0.,0.,4.));
#154=UNCERTAINTY_MEASURE_WITH_UNIT(LENGTH_MEASURE(0.01),#158,
'DISTANCE_ACCURACY_VALUE',
'Maximum model space distance between geometric entities at asserted c
onnectivities');
#155=UNCERTAINTY_MEASURE_WITH_UNIT(LENGTH_MEASURE(0.01),#158,
'DISTANCE_ACCURACY_VALUE',
'Maximum model space distance between geometric entities at asserted c
onnectivities');
#156=(
GEOMETRIC_REPRESENTATION_CONTEXT(3)
GLOBAL_UNCERTAINTY_ASSIGNED_CONTEXT((#154))
GLOBAL_UNIT_ASSIGNED_CONTEXT((#158,#161,#160))
REPRESENTATION_CONTEXT('','3D')
);
#157=(
GEOMETRIC_REPRESENTATION_CONTEXT(3)
GLOBAL_UNCERTAINTY_ASSIGNED_CONTEXT((#155))
GLOBAL_UNIT_ASSIGNED_CONTEXT((#158,#161,#160))
REPRESENTATION_CONTEXT('','3D')
);
#158=(
LENGTH_UNIT()
NAMED_UNIT(*)
SI_UNIT(.MILLI.,.METRE.)
);
#159=(
LENGTH_UNIT()
NAMED_UNIT(*)
SI_UNIT($,.METRE.)
);
#160=(
NAMED_UNIT(*)
SI_UNIT($,.STERADIAN.)
SOLID_ANGLE_UNIT()
);
#161=(
NAMED_UNIT(*)
PLANE_ANGLE_UNIT()
SI_UNIT($,.RADIAN.)
);
#162=SHAPE_DEFINITION_REPRESENTATION(#163,#164);
#163=PRODUCT_DEFINITION_SHAPE('',$,#166);
#164=SHAPE_REPRESENTATION('',(#93),#156);
#165=PRODUCT_DEFINITION_CONTEXT('part definition',#170,'design');
#166=PRODUCT_DEFINITION('Temp_Buttom','Temp_Buttom v4',#167,#165);
#167=PRODUCT_DEFINITION_FORMATION('',$,#172);
#168=PRODUCT_RELATED_PRODUCT_CATEGORY('Temp_Buttom v4','Temp_Buttom v4',
(#172));
#169=APPLICATION_PROTOCOL_DEFINITION('international standard',
'automotive_design',2009,#170);
#170=APPLICATION_CONTEXT(
'Core Data for Automotive Mechanical Design Process');
#171=PRODUCT_CONTEXT('part definition',#170,'mechanical');
#172=PRODUCT('Temp_Buttom','Temp_Buttom v4',$,(#171));
#173=PRESENTATION_STYLE_ASSIGNMENT((#174));
#174=SURFACE_STYLE_USAGE(.BOTH.,#175);
#175=SURFACE_SIDE_STYLE('',(#176));
#176=SURFACE_STYLE_FILL_AREA(#177);
#177=FILL_AREA_STYLE('Steel - Satin',(#178));
#178=FILL_AREA_STYLE_COLOUR('Steel - Satin',#179);
#179=COLOUR_RGB('Steel - Satin',0.627450980392157,0.627450980392157,0.627450980392157);
ENDSEC;
END-ISO-10303-21;
