  0
SECTION
  2
HEADER
  9
$ACADVER
  1
AC1009
  9
$INSBASE
 10
0.0
 20
0.0
 30
0.0
  9
$EXTMIN
 10
0.0
 20
0.0
 30
0.0
  9
$EXTMAX
 10
382.64978032513181
 20
134.3704562646524
 30
0.0
  9
$LIMMIN
 10
0.0
 20
0.0
  9
$LIMMAX
 10
382.64978032513181
 20
134.3704562646524
  9
$ORTHOMODE
 70
     0
  9
$REGENMODE
 70
     1
  9
$FILLMODE
 70
     1
  9
$QTEXTMODE
 70
     0
  9
$MIRRTEXT
 70
     0
  9
$DRAGMODE
 70
     2
  9
$LTSCALE
 40
1.0
  9
$OSMODE
 70
     0
  9
$ATTMODE
 70
     1
  9
$TEXTSIZE
 40
0.2
  9
$TRACEWID
 40
0.05
  9
$TEXTSTYLE
  7
STANDARD
  9
$CLAYER
  8
0
  9
$CELTYPE
  6
BYLAYER
  9
$CECOLOR
 62
   256
  9
$DIMSCALE
 40
1.0
  9
$DIMASZ
 40
1.7999999999999989
  9
$DIMEXO
 40
0.0625
  9
$DIMDLI
 40
0.38
  9
$DIMRND
 40
0.0
  9
$DIMDLE
 40
0.0
  9
$DIMEXE
 40
0.18
  9
$DIMTP
 40
0.0
  9
$DIMTM
 40
0.0
  9
$DIMTXT
 40
1.7999999999999989
  9
$DIMCEN
 40
0.09
  9
$DIMTSZ
 40
0.0
  9
$DIMTOL
 70
     0
  9
$DIMLIM
 70
     0
  9
$DIMTIH
 70
     1
  9
$DIMTOH
 70
     1
  9
$DIMSE1
 70
     0
  9
$DIMSE2
 70
     0
  9
$DIMTAD
 70
     0
  9
$DIMZIN
 70
     0
  9
$DIMBLK
  1

  9
$DIMASO
 70
     1
  9
$DIMSHO
 70
     1
  9
$DIMPOST
  1

  9
$DIMAPOST
  1

  9
$DIMALT
 70
     0
  9
$DIMALTD
 70
     2
  9
$DIMALTF
 40
25.399999999999999
  9
$DIMLFAC
 40
1.0
  9
$DIMTOFL
 70
     0
  9
$DIMTVP
 40
0.0
  9
$DIMTIX
 70
     0
  9
$DIMSOXD
 70
     0
  9
$DIMSAH
 70
     0
  9
$DIMBLK1
  1

  9
$DIMBLK2
  1

  9
$DIMSTYLE
  2
STANDARD
  9
$DIMCLRD
 70
     0
  9
$DIMCLRE
 70
     0
  9
$DIMCLRT
 70
     0
  9
$DIMTFAC
 40
1.0
  9
$DIMGAP
 40
0.09
  9
$LUNITS
 70
     2
  9
$LUPREC
 70
     4
  9
$SKETCHINC
 40
0.1
  9
$FILLETRAD
 40
0.0
  9
$AUNITS
 70
     0
  9
$AUPREC
 70
     0
  9
$MENU
  1
.
  9
$ELEVATION
 40
0.0
  9
$PELEVATION
 40
0.0
  9
$THICKNESS
 40
0.0
  9
$LIMCHECK
 70
     0
  9
$BLIPMODE
 70
     0
  9
$CHAMFERA
 40
0.0
  9
$CHAMFERB
 40
0.0
  9
$SKPOLY
 70
     0
  9
$TDCREATE
 40
2457075.7717967592
  9
$TDUPDATE
 40
2457075.7717967592
  9
$TDINDWG
 40
0.0000033681
  9
$TDUSRTIMER
 40
0.0000033681
  9
$USRTIMER
 70
     1
  9
$ANGBASE
 50
0.0
  9
$ANGDIR
 70
     0
  9
$PDMODE
 70
     0
  9
$PDSIZE
 40
0.0
  9
$PLINEWID
 40
0.0
  9
$COORDS
 70
     0
  9
$SPLFRAME
 70
     0
  9
$SPLINETYPE
 70
     6
  9
$SPLINESEGS
 70
     8
  9
$ATTDIA
 70
     1
  9
$ATTREQ
 70
     1
  9
$HANDLING
 70
     1
  9
$HANDSEED
  5
149
  9
$SURFTAB1
 70
     6
  9
$SURFTAB2
 70
     6
  9
$SURFTYPE
 70
     6
  9
$SURFU
 70
     6
  9
$SURFV
 70
     6
  9
$UCSNAME
  2

  9
$UCSORG
 10
0.0
 20
0.0
 30
0.0
  9
$UCSXDIR
 10
1.0
 20
0.0
 30
0.0
  9
$UCSYDIR
 10
0.0
 20
1.0
 30
0.0
  9
$PUCSNAME
  2

  9
$PUCSORG
 10
0.0
 20
0.0
 30
0.0
  9
$PUCSXDIR
 10
1.0
 20
0.0
 30
0.0
  9
$PUCSYDIR
 10
0.0
 20
1.0
 30
0.0
  9
$USERI1
 70
     0
  9
$USERI2
 70
     0
  9
$USERI3
 70
     0
  9
$USERI4
 70
     0
  9
$USERI5
 70
     0
  9
$USERR1
 40
0.0
  9
$USERR2
 40
0.0
  9
$USERR3
 40
0.0
  9
$USERR4
 40
0.0
  9
$USERR5
 40
0.0
  9
$WORLDVIEW
 70
     1
  9
$SHADEDGE
 70
     3
  9
$SHADEDIF
 70
    70
  9
$TILEMODE
 70
     1
  9
$MAXACTVP
 70
    64
  9
$PLIMCHECK
 70
     0
  9
$PEXTMIN
 10
0.0
 20
0.0
 30
0.0
  9
$PEXTMAX
 10
382.64978032513181
 20
134.3704562646524
 30
0.0
  9
$PLIMMIN
 10
0.0
 20
0.0
  9
$PLIMMAX
 10
382.64978032513181
 20
134.3704562646524
  9
$UNITMODE
 70
     0
  9
$VISRETAIN
 70
     1
  9
$PLINEGEN
 70
     0
  9
$PSLTSCALE
 70
     1
  0
ENDSEC
  0
SECTION
  2
TABLES
  0
TABLE
  2
VPORT
 70
     1
  0
VPORT
  2
*ACTIVE
 70
     0
 10
0.0
 20
0.0
 11
1.0
 21
1.0
 12
193.65511135374169
 22
69.226836402534019
 13
0.0
 23
0.0
 14
1.0
 24
1.0
 15
0.0
 25
0.0
 16
0.0
 26
0.0
 36
1.0
 17
0.0
 27
0.0
 37
0.0
 40
134.3704562646524
 41
2.8477225646348558
 42
50.0
 43
0.0
 44
0.0
 50
0.0
 51
0.0
 71
     0
 72
   100
 73
     1
 74
     1
 75
     0
 76
     0
 77
     0
 78
     0
  0
ENDTAB
  0
TABLE
  2
LTYPE
 70
    46
  0
LTYPE
  2
CONTINUOUS
 70
     0
  3
Solid line
 72
    65
 73
     0
 40
0.0
  0
LTYPE
  2
BORDER
 70
     0
  3
Border __ __ . __ __ . __ __ . __ __ . __ __ .
 72
    65
 73
     6
 40
1.75
 49
0.5
 49
-0.25
 49
0.5
 49
-0.25
 49
0.0
 49
-0.25
  0
LTYPE
  2
BORDER2
 70
     0
  3
Border (.5x) __.__.__.__.__.__.__.__.__.__.__.
 72
    65
 73
     6
 40
0.875
 49
0.25
 49
-0.125
 49
0.25
 49
-0.125
 49
0.0
 49
-0.125
  0
LTYPE
  2
BORDERX2
 70
     0
  3
Border (2x) ____  ____  .  ____  ____  .  ___
 72
    65
 73
     6
 40
3.5
 49
1.0
 49
-0.5
 49
1.0
 49
-0.5
 49
0.0
 49
-0.5
  0
LTYPE
  2
CENTER
 70
     0
  3
Center ____ _ ____ _ ____ _ ____ _ ____ _ ____
 72
    65
 73
     4
 40
2.0
 49
1.25
 49
-0.25
 49
0.25
 49
-0.25
  0
LTYPE
  2
CENTER2
 70
     0
  3
Center (.5x) ___ _ ___ _ ___ _ ___ _ ___ _ ___
 72
    65
 73
     4
 40
1.125
 49
0.75
 49
-0.125
 49
0.125
 49
-0.125
  0
LTYPE
  2
CENTERX2
 70
     0
  3
Center (2x) ________  __  ________  __  _____
 72
    65
 73
     4
 40
4.0
 49
2.5
 49
-0.5
 49
0.5
 49
-0.5
  0
LTYPE
  2
DASHDOT
 70
     0
  3
Dash dot __ . __ . __ . __ . __ . __ . __ . __
 72
    65
 73
     4
 40
1.0
 49
0.5
 49
-0.25
 49
0.0
 49
-0.25
  0
LTYPE
  2
DASHDOT2
 70
     0
  3
Dash dot (.5x) _._._._._._._._._._._._._._._.
 72
    65
 73
     4
 40
0.5
 49
0.25
 49
-0.125
 49
0.0
 49
-0.125
  0
LTYPE
  2
DASHDOTX2
 70
     0
  3
Dash dot (2x) ____  .  ____  .  ____  .  ___
 72
    65
 73
     4
 40
2.0
 49
1.0
 49
-0.5
 49
0.0
 49
-0.5
  0
LTYPE
  2
DASHED
 70
     0
  3
Dashed __ __ __ __ __ __ __ __ __ __ __ __ __ _
 72
    65
 73
     2
 40
0.75
 49
0.5
 49
-0.25
  0
LTYPE
  2
DASHED2
 70
     0
  3
Dashed (.5x) _ _ _ _ _ _ _ _ _ _ _ _ _ _ _ _ _
 72
    65
 73
     2
 40
0.375
 49
0.25
 49
-0.125
  0
LTYPE
  2
DASHEDX2
 70
     0
  3
Dashed (2x) ____  ____  ____  ____  ____  ___
 72
    65
 73
     2
 40
1.5
 49
1.0
 49
-0.5
  0
LTYPE
  2
DIVIDE
 70
     0
  3
Divide ____ . . ____ . . ____ . . ____ . . ____
 72
    65
 73
     6
 40
1.25
 49
0.5
 49
-0.25
 49
0.0
 49
-0.25
 49
0.0
 49
-0.25
  0
LTYPE
  2
DIVIDE2
 70
     0
  3
Divide (.5x) __..__..__..__..__..__..__..__.._
 72
    65
 73
     6
 40
0.625
 49
0.25
 49
-0.125
 49
0.0
 49
-0.125
 49
0.0
 49
-0.125
  0
LTYPE
  2
DIVIDEX2
 70
     0
  3
Divide (2x) ________  .  .  ________  .  .  _
 72
    65
 73
     6
 40
2.5
 49
1.0
 49
-0.5
 49
0.0
 49
-0.5
 49
0.0
 49
-0.5
  0
LTYPE
  2
DOT
 70
     0
  3
Dot . . . . . . . . . . . . . . . . . . . . . .
 72
    65
 73
     2
 40
0.25
 49
0.0
 49
-0.25
  0
LTYPE
  2
DOT2
 70
     0
  3
Dot (.5x) .....................................
 72
    65
 73
     2
 40
0.125
 49
0.0
 49
-0.125
  0
LTYPE
  2
DOTX2
 70
     0
  3
Dot (2x) .  .  .  .  .  .  .  .  .  .  .  .  . 
 72
    65
 73
     2
 40
0.5
 49
0.0
 49
-0.5
  0
LTYPE
  2
HIDDEN
 70
     0
  3
Hidden __ __ __ __ __ __ __ __ __ __ __ __ __ _
 72
    65
 73
     2
 40
0.375
 49
0.25
 49
-0.125
  0
LTYPE
  2
HIDDEN2
 70
     0
  3
Hidden (.5x) _ _ _ _ _ _ _ _ _ _ _ _ _ _ _ _ _
 72
    65
 73
     2
 40
0.1875
 49
0.125
 49
-0.0625
  0
LTYPE
  2
HIDDENX2
 70
     0
  3
Hidden (2x) ____ ____ ____ ____ ____ ____ ____
 72
    65
 73
     2
 40
0.75
 49
0.5
 49
-0.25
  0
LTYPE
  2
PHANTOM
 70
     0
  3
Phantom ______  __  __  ______  __  __  ______
 72
    65
 73
     6
 40
2.5
 49
1.25
 49
-0.25
 49
0.25
 49
-0.25
 49
0.25
 49
-0.25
  0
LTYPE
  2
PHANTOM2
 70
     0
  3
Phantom (.5x) ___ _ _ ___ _ _ ___ _ _ ___ _ _
 72
    65
 73
     6
 40
1.25
 49
0.625
 49
-0.125
 49
0.125
 49
-0.125
 49
0.125
 49
-0.125
  0
LTYPE
  2
PHANTOMX2
 70
     0
  3
Phantom (2x) ____________    ____    ____   _
 72
    65
 73
     6
 40
5.0
 49
2.5
 49
-0.5
 49
0.5
 49
-0.5
 49
0.5
 49
-0.5
  0
LTYPE
  2
ACAD_ISO02W100
 70
     0
  3
ISO dash __ __ __ __ __ __ __ __ __ __ __ __ __
 72
    65
 73
     2
 40
15.0
 49
12.0
 49
-3.0
  0
LTYPE
  2
ACAD_ISO03W100
 70
     0
  3
ISO dash space __    __    __    __    __    __
 72
    65
 73
     2
 40
30.0
 49
12.0
 49
-18.0
  0
LTYPE
  2
ACAD_ISO04W100
 70
     0
  3
ISO long-dash dot ____ . ____ . ____ . ____ . _
 72
    65
 73
     4
 40
30.0
 49
24.0
 49
-3.0
 49
0.0
 49
-3.0
  0
LTYPE
  2
ACAD_ISO05W100
 70
     0
  3
ISO long-dash double-dot ____ .. ____ .. ____ .
 72
    65
 73
     6
 40
33.0
 49
24.0
 49
-3.0
 49
0.0
 49
-3.0
 49
0.0
 49
-3.0
  0
LTYPE
  2
ACAD_ISO06W100
 70
     0
  3
ISO long-dash triple-dot ____ ... ____ ... ____
 72
    65
 73
     8
 40
36.0
 49
24.0
 49
-3.0
 49
0.0
 49
-3.0
 49
0.0
 49
-3.0
 49
0.0
 49
-3.0
  0
LTYPE
  2
ACAD_ISO07W100
 70
     0
  3
ISO dot . . . . . . . . . . . . . . . . . . . .
 72
    65
 73
     2
 40
3.0
 49
0.0
 49
-3.0
  0
LTYPE
  2
ACAD_ISO08W100
 70
     0
  3
ISO long-dash short-dash ____ __ ____ __ ____ _
 72
    65
 73
     4
 40
36.0
 49
24.0
 49
-3.0
 49
6.0
 49
-3.0
  0
LTYPE
  2
ACAD_ISO09W100
 70
     0
  3
ISO long-dash double-short-dash ____ __ __ ____
 72
    65
 73
     6
 40
45.0
 49
24.0
 49
-3.0
 49
6.0
 49
-3.0
 49
6.0
 49
-3.0
  0
LTYPE
  2
ACAD_ISO10W100
 70
     0
  3
ISO dash dot __ . __ . __ . __ . __ . __ . __ .
 72
    65
 73
     4
 40
18.0
 49
12.0
 49
-3.0
 49
0.0
 49
-3.0
  0
LTYPE
  2
ACAD_ISO11W100
 70
     0
  3
ISO double-dash dot __ __ . __ __ . __ __ . __ 
 72
    65
 73
     6
 40
33.0
 49
12.0
 49
-3.0
 49
12.0
 49
-3.0
 49
0.0
 49
-3.0
  0
LTYPE
  2
ACAD_ISO12W100
 70
     0
  3
ISO dash double-dot __ . . __ . . __ . . __ . .
 72
    65
 73
     6
 40
21.0
 49
12.0
 49
-3.0
 49
0.0
 49
-3.0
 49
0.0
 49
-3.0
  0
LTYPE
  2
ACAD_ISO13W100
 70
     0
  3
ISO double-dash double-dot __ __ . . __ __ . . 
 72
    65
 73
     8
 40
36.0
 49
12.0
 49
-3.0
 49
12.0
 49
-3.0
 49
0.0
 49
-3.0
 49
0.0
 49
-3.0
  0
LTYPE
  2
ACAD_ISO14W100
 70
     0
  3
ISO dash triple-dot __ . . . __ . . . __ . . . 
 72
    65
 73
     8
 40
24.0
 49
12.0
 49
-3.0
 49
0.0
 49
-3.0
 49
0.0
 49
-3.0
 49
0.0
 49
-3.0
  0
LTYPE
  2
ACAD_ISO15W100
 70
     0
  3
ISO double-dash triple-dot __ __ . . . __ __ . 
 72
    65
 73
    10
 40
39.0
 49
12.0
 49
-3.0
 49
12.0
 49
-3.0
 49
0.0
 49
-3.0
 49
0.0
 49
-3.0
 49
0.0
 49
-3.0
  0
LTYPE
  2
FENCELINE1
 70
     0
  3
Fenceline circle ----0-----0----0-----0----0---
 72
    65
 73
     4
 40
1.45
 49
0.25
 49
-0.1
 49
-0.1
 49
1.0
  0
LTYPE
  2
FENCELINE2
 70
     0
  3
Fenceline square ----[]-----[]----[]-----[]----
 72
    65
 73
     4
 40
1.45
 49
0.25
 49
-0.1
 49
-0.1
 49
1.0
  0
LTYPE
  2
TRACKS
 70
     0
  3
Tracks -|-|-|-|-|-|-|-|-|-|-|-|-|-|-|-|-|-|-|-|
 72
    65
 73
     2
 40
0.3
 49
0.15
 49
0.15
  0
LTYPE
  2
BATTING
 70
     0
  3
Batting SSSSSSSSSSSSSSSSSSSSSSSSSSSSSSSSSSSSSSS
 72
    65
 73
     4
 40
0.4001000000000001
 49
0.0001
 49
-0.1
 49
-0.2
 49
-0.1
  0
LTYPE
  2
HOT_WATER_SUPPLY
 70
     0
  3
Hot water supply ---- HW ---- HW ---- HW ----
 72
    65
 73
     3
 40
0.9
 49
0.5
 49
-0.2
 49
-0.2
  0
LTYPE
  2
GAS_LINE
 70
     0
  3
Gas line ----GAS----GAS----GAS----GAS----GAS---
 72
    65
 73
     3
 40
0.95
 49
0.5
 49
-0.2
 49
-0.25
  0
LTYPE
  2
ZIGZAG
 70
     0
  3
Zig zag /\/\/\/\/\/\/\/\/\/\/\/\/\/\/\/\/\/\/\/
 72
    65
 73
     4
 40
0.8001000000000001
 49
0.0001
 49
-0.2
 49
-0.4
 49
-0.2
  0
ENDTAB
  0
TABLE
  2
LAYER
 70
     3
  0
LAYER
  2
0
 70
     0
 62
     7
  6
CONTINUOUS
  0
LAYER
  2
IV_INTERIOR_PROFILES
 70
     0
 62
     7
  6
CONTINUOUS
  0
LAYER
  2
IV_OUTER_PROFILE
 70
     0
 62
     7
  6
CONTINUOUS
  0
ENDTAB
  0
TABLE
  2
STYLE
 70
     3
  0
STYLE
  2
STANDARD
 70
     0
 40
0.0
 41
1.0
 50
0.0
 71
     0
 42
0.2
  3
txt
  4

  0
STYLE
  2
ANNOTATIVE
 70
     0
 40
0.0
 41
1.0
 50
0.0
 71
     0
 42
0.2
  3
txt
  4

  0
STYLE
  2

 70
     1
 40
0.0
 41
1.0
 50
0.0
 71
     0
 42
0.2
  3
ltypeshp.shx
  4

  0
ENDTAB
  0
TABLE
  2
VIEW
 70
     0
  0
ENDTAB
  0
TABLE
  2
UCS
 70
     0
  0
ENDTAB
  0
TABLE
  2
APPID
 70
     3
  0
APPID
  2
ACAD
 70
     0
  0
APPID
  2
ACADANNOTATIVE
 70
     0
  0
APPID
  2
ACAD_MLEADERVER
 70
     0
  0
ENDTAB
  0
TABLE
  2
DIMSTYLE
 70
     2
  0
DIMSTYLE
  2
STANDARD
 70
     0
  3

  4

  5

  6

  7

 40
1.0
 41
0.18
 42
0.0625
 43
0.38
 44
0.18
 45
0.0
 46
0.0
 47
0.0
 48
0.0
140
0.18
141
0.09
142
0.0
143
25.399999999999999
144
1.0
145
0.0
146
1.0
147
0.09
 71
     0
 72
     0
 73
     1
 74
     1
 75
     0
 76
     0
 77
     0
 78
     0
170
     0
171
     2
172
     0
173
     0
174
     0
175
     0
176
     0
177
     0
178
     0
  0
DIMSTYLE
  2
ANNOTATIVE
 70
     0
  3

  4

  5

  6

  7

 40
1.0
 41
0.18
 42
0.0625
 43
0.38
 44
0.18
 45
0.0
 46
0.0
 47
0.0
 48
0.0
140
0.18
141
0.09
142
0.0
143
25.399999999999999
144
1.0
145
0.0
146
1.0
147
0.09
 71
     0
 72
     0
 73
     1
 74
     1
 75
     0
 76
     0
 77
     0
 78
     0
170
     0
171
     2
172
     0
173
     0
174
     0
175
     0
176
     0
177
     0
178
     0
  0
ENDTAB
  0
ENDSEC
  0
SECTION
  2
BLOCKS
  0
BLOCK
  8
0
  2
$MODEL_SPACE
 70
     0
 10
0.0
 20
0.0
 30
0.0
  3
$MODEL_SPACE
  1

  0
ENDBLK
  5
72
  8
0
  0
BLOCK
 67
     1
  8
0
  2
$PAPER_SPACE
 70
     0
 10
0.0
 20
0.0
 30
0.0
  3
$PAPER_SPACE
  1

  0
ENDBLK
  5
6E
 67
     1
  8
0
  0
ENDSEC
  0
SECTION
  2
ENTITIES
  0
CIRCLE
  5
A8
  8
IV_INTERIOR_PROFILES
 10
206.68618711825081
 20
95.967104342487744
 30
0.0
 40
6.2499999999999982
  0
CIRCLE
  5
AA
  8
IV_INTERIOR_PROFILES
 10
149.86515233437979
 20
113.61986633856451
 30
0.0
 40
1.549999999999998
  0
CIRCLE
  5
AB
  8
IV_INTERIOR_PROFILES
 10
119.4156553996028
 20
107.8036702948431
 30
0.0
 40
1.549999999999994
  0
CIRCLE
  5
AC
  8
IV_INTERIOR_PROFILES
 10
75.170627051824155
 20
94.261976659840755
 30
0.0
 40
1.5499999999999949
  0
CIRCLE
  5
AD
  8
IV_INTERIOR_PROFILES
 10
78.923011596160563
 20
74.617139927726498
 30
0.0
 40
1.55
  0
CIRCLE
  5
AE
  8
IV_INTERIOR_PROFILES
 10
94.859609484460037
 20
103.1131896144225
 30
0.0
 40
1.550000000000004
  0
CIRCLE
  5
AF
  8
IV_INTERIOR_PROFILES
 10
123.35565917115611
 20
87.176591726123135
 30
0.0
 40
1.5500000000000049
  0
CIRCLE
  5
B0
  8
IV_INTERIOR_PROFILES
 10
153.80515610593309
 20
92.992787769844597
 30
0.0
 40
1.550000000000006
  0
CIRCLE
  5
B1
  8
IV_INTERIOR_PROFILES
 10
179.07856965455201
 20
67.277917216009669
 30
0.0
 40
8.0500000000000025
  0
CIRCLE
  5
B2
  8
IV_INTERIOR_PROFILES
 10
341.14847269449461
 20
98.235089706785203
 30
0.0
 40
8.0500000000000025
  0
CIRCLE
  5
B3
  8
IV_INTERIOR_PROFILES
 10
257.95590006152992
 20
94.052284582363114
 30
0.0
 40
5.0499999999999989
  0
CIRCLE
  5
B4
  8
IV_INTERIOR_PROFILES
 10
235.85545873790139
 20
89.830851969984622
 30
0.0
 40
3.25
  0
CIRCLE
  5
B5
  8
IV_INTERIOR_PROFILES
 10
280.05634138515842
 20
98.273717194741593
 30
0.0
 40
3.25
  0
CIRCLE
  5
B6
  8
IV_INTERIOR_PROFILES
 10
285.42777852604928
 20
75.482608064229737
 30
0.0
 40
2.7500000000000009
  0
CIRCLE
  5
B7
  8
IV_INTERIOR_PROFILES
 10
239.26241220558089
 20
66.664504385039137
 30
0.0
 40
2.7500000000000009
  0
CIRCLE
  5
B8
  8
IV_INTERIOR_PROFILES
 10
230.4443085263903
 20
112.8298707055076
 30
0.0
 40
2.7500000000000009
  0
CIRCLE
  5
B9
  8
IV_INTERIOR_PROFILES
 10
276.60967484685881
 20
121.6479743846982
 30
0.0
 40
2.7500000000000009
  0
CIRCLE
  5
BA
  8
IV_INTERIOR_PROFILES
 10
159.43373292243771
 20
63.525532671673233
 30
0.0
 40
2.7500000000000009
  0
CIRCLE
  5
BB
  8
IV_INTERIOR_PROFILES
 10
198.72340638666631
 20
71.030301760346106
 30
0.0
 40
2.7500000000000009
  0
CIRCLE
  5
BC
  8
IV_INTERIOR_PROFILES
 10
321.50363596238037
 20
94.482705162448781
 30
0.0
 40
2.7500000000000009
  0
CIRCLE
  5
BD
  8
IV_INTERIOR_PROFILES
 10
360.7933094266088
 20
101.9874742511216
 30
0.0
 40
2.7500000000000009
  0
CIRCLE
  5
BE
  8
IV_INTERIOR_PROFILES
 10
273.29101278022239
 20
64.402928469540129
 30
0.0
 40
2.7500000000000009
  0
CIRCLE
  5
BF
  8
IV_INTERIOR_PROFILES
 10
270.29240704236821
 20
112.08117626910651
 30
0.0
 40
1.75
  0
CIRCLE
  5
C0
  8
IV_INTERIOR_PROFILES
 10
239.84291010759119
 20
106.264980225385
 30
0.0
 40
1.75
  0
CIRCLE
  5
C1
  8
IV_INTERIOR_PROFILES
 10
245.6591061513127
 20
75.815483290607929
 30
0.0
 40
1.75
  0
CIRCLE
  5
C2
  8
IV_INTERIOR_PROFILES
 10
276.10860308608972
 20
81.631679334329434
 30
0.0
 40
1.75
  0
POLYLINE
  5
C4
  8
IV_OUTER_PROFILE
 66
     1
 10
0.0
 20
0.0
 30
0.0
 70
   129
  0
VERTEX
  5
C5
  8
IV_OUTER_PROFILE
 10
363.5921640210986
 20
134.64425621197901
 30
0.0
 42
-0.3599537539956704
  0
VERTEX
  5
C6
  8
IV_OUTER_PROFILE
 10
373.41458238715569
 20
126.5204484841472
 30
0.0
  0
VERTEX
  5
C8
  8
IV_OUTER_PROFILE
 10
382.55713978376019
 20
78.65647152545337
 30
0.0
 42
-0.4142135623730951
  0
VERTEX
  5
C9
  8
IV_OUTER_PROFILE
 10
374.61091368987121
 20
66.957860887228037
 30
0.0
  0
VERTEX
  5
CA
  8
IV_OUTER_PROFILE
 10
34.75523822429475
 20
2.0416082702077878
 30
0.0
  0
VERTEX
  5
CB
  8
IV_OUTER_PROFILE
 10
30.064757543874212
 20
26.597654185350589
 30
0.0
  0
VERTEX
  5
CC
  8
IV_OUTER_PROFILE
 10
18.277855504605661
 20
24.346223458748732
 30
0.0
  0
VERTEX
  5
CD
  8
IV_OUTER_PROFILE
 10
13.587374824185121
 20
48.902269373891571
 30
0.0
  0
VERTEX
  5
CE
  8
IV_OUTER_PROFILE
 10
25.37427686345367
 20
51.153700100493431
 30
0.0
  0
VERTEX
  5
CF
  8
IV_OUTER_PROFILE
 10
22.672559991531418
 20
65.29798254761576
 30
0.0
  0
VERTEX
  5
D0
  8
IV_OUTER_PROFILE
 10
32.49497835758855
 20
67.174174819783985
 30
0.0
  0
VERTEX
  5
D1
  8
IV_OUTER_PROFILE
 10
33.039074116517348
 20
64.325673493627306
 30
0.0
  0
VERTEX
  5
D2
  8
IV_OUTER_PROFILE
 10
37.950283299545909
 20
65.263769629711405
 30
0.0
  0
VERTEX
  5
D3
  8
IV_OUTER_PROFILE
 10
35.698852572944048
 20
77.050671668979973
 30
0.0
  0
VERTEX
  5
D4
  8
IV_OUTER_PROFILE
 10
30.787643389915491
 20
76.11257553289586
 30
0.0
  0
VERTEX
  5
D5
  8
IV_OUTER_PROFILE
 10
31.331739148844289
 20
73.26407420673921
 30
0.0
  0
VERTEX
  5
D6
  8
IV_OUTER_PROFILE
 10
21.509320782787171
 20
71.387881934570999
 30
0.0
  0
VERTEX
  5
D7
  8
IV_OUTER_PROFILE
 10
18.80760391086492
 20
85.53216438169332
 30
0.0
  0
VERTEX
  5
D8
  8
IV_OUTER_PROFILE
 10
7.0207018715963754
 20
83.280733655091481
 30
0.0
  0
VERTEX
  5
D9
  8
IV_OUTER_PROFILE
 10
2.3302211911758342
 20
107.8367795702343
 30
0.0
  0
VERTEX
  5
DA
  8
IV_OUTER_PROFILE
 10
14.117123230444379
 20
110.0882102968361
 30
0.0
  0
VERTEX
  5
DB
  8
IV_OUTER_PROFILE
 10
9.4266425500238427
 20
134.64425621197901
 30
0.0
  0
VERTEX
  5
DC
  8
IV_OUTER_PROFILE
 10
363.5921640210986
 20
134.64425621197901
 30
0.0
  0
SEQEND
  5
C7
  8
IV_OUTER_PROFILE
  0
POLYLINE
  5
DD
  8
IV_INTERIOR_PROFILES
 66
     1
 10
0.0
 20
0.0
 30
0.0
 70
   129
  0
VERTEX
  5
DE
  8
IV_INTERIOR_PROFILES
 10
200.35017545088749
 20
45.990860424491643
 30
0.0
  0
VERTEX
  5
DF
  8
IV_INTERIOR_PROFILES
 10
249.65871564849411
 20
55.409345630776052
 30
0.0
  0
VERTEX
  5
E1
  8
IV_INTERIOR_PROFILES
 10
250.82195485723841
 20
49.319446243820792
 30
0.0
  0
VERTEX
  5
E2
  8
IV_INTERIOR_PROFILES
 10
201.51341465963179
 20
39.900961037536383
 30
0.0
  0
VERTEX
  5
E3
  8
IV_INTERIOR_PROFILES
 10
200.35017545088749
 20
45.990860424491643
 30
0.0
  0
SEQEND
  5
E0
  8
IV_INTERIOR_PROFILES
  0
POLYLINE
  5
E4
  8
IV_INTERIOR_PROFILES
 66
     1
 10
0.0
 20
0.0
 30
0.0
 70
   129
  0
VERTEX
  5
E5
  8
IV_INTERIOR_PROFILES
 10
349.04613851780971
 20
68.081368965502932
 30
0.0
  0
VERTEX
  5
E6
  8
IV_INTERIOR_PROFILES
 10
299.73759832020312
 20
58.662883759218538
 30
0.0
  0
VERTEX
  5
E8
  8
IV_INTERIOR_PROFILES
 10
298.57435911145882
 20
64.752783146173797
 30
0.0
  0
VERTEX
  5
E9
  8
IV_INTERIOR_PROFILES
 10
347.88289930906541
 20
74.171268352458199
 30
0.0
  0
VERTEX
  5
EA
  8
IV_INTERIOR_PROFILES
 10
349.04613851780971
 20
68.081368965502932
 30
0.0
  0
SEQEND
  5
E7
  8
IV_INTERIOR_PROFILES
  0
ENDSEC
  0
EOF
