  0
SECTION
  2
HEADER
  9
$ACADVER
  1
AC1009
  9
$INSBASE
 10
0.0
 20
0.0
 30
0.0
  9
$EXTMIN
 10
0.0
 20
0.0
 30
0.0
  9
$EXTMAX
 10
130.82842740758889
 20
100.8284274075889
 30
0.0
  9
$LIMMIN
 10
0.0
 20
0.0
  9
$LIMMAX
 10
130.82842740758889
 20
100.8284274075889
  9
$ORTHOMODE
 70
     0
  9
$REGENMODE
 70
     1
  9
$FILLMODE
 70
     1
  9
$QTEXTMODE
 70
     0
  9
$MIRRTEXT
 70
     0
  9
$DRAGMODE
 70
     2
  9
$LTSCALE
 40
1.0
  9
$OSMODE
 70
     0
  9
$ATTMODE
 70
     1
  9
$TEXTSIZE
 40
0.2
  9
$TRACEWID
 40
0.05
  9
$TEXTSTYLE
  7
STANDARD
  9
$CLAYER
  8
0
  9
$CELTYPE
  6
BYLAYER
  9
$CECOLOR
 62
   256
  9
$DIMSCALE
 40
1.0
  9
$DIMASZ
 40
1.7999999999999989
  9
$DIMEXO
 40
0.0625
  9
$DIMDLI
 40
0.38
  9
$DIMRND
 40
0.0
  9
$DIMDLE
 40
0.0
  9
$DIMEXE
 40
0.18
  9
$DIMTP
 40
0.0
  9
$DIMTM
 40
0.0
  9
$DIMTXT
 40
1.7999999999999989
  9
$DIMCEN
 40
0.09
  9
$DIMTSZ
 40
0.0
  9
$DIMTOL
 70
     0
  9
$DIMLIM
 70
     0
  9
$DIMTIH
 70
     1
  9
$DIMTOH
 70
     1
  9
$DIMSE1
 70
     0
  9
$DIMSE2
 70
     0
  9
$DIMTAD
 70
     0
  9
$DIMZIN
 70
     0
  9
$DIMBLK
  1

  9
$DIMASO
 70
     1
  9
$DIMSHO
 70
     1
  9
$DIMPOST
  1

  9
$DIMAPOST
  1

  9
$DIMALT
 70
     0
  9
$DIMALTD
 70
     2
  9
$DIMALTF
 40
25.399999999999999
  9
$DIMLFAC
 40
1.0
  9
$DIMTOFL
 70
     0
  9
$DIMTVP
 40
0.0
  9
$DIMTIX
 70
     0
  9
$DIMSOXD
 70
     0
  9
$DIMSAH
 70
     0
  9
$DIMBLK1
  1

  9
$DIMBLK2
  1

  9
$DIMSTYLE
  2
STANDARD
  9
$DIMCLRD
 70
     0
  9
$DIMCLRE
 70
     0
  9
$DIMCLRT
 70
     0
  9
$DIMTFAC
 40
1.0
  9
$DIMGAP
 40
0.09
  9
$LUNITS
 70
     2
  9
$LUPREC
 70
     4
  9
$SKETCHINC
 40
0.1
  9
$FILLETRAD
 40
0.0
  9
$AUNITS
 70
     0
  9
$AUPREC
 70
     0
  9
$MENU
  1
.
  9
$ELEVATION
 40
0.0
  9
$PELEVATION
 40
0.0
  9
$THICKNESS
 40
0.0
  9
$LIMCHECK
 70
     0
  9
$BLIPMODE
 70
     0
  9
$CHAMFERA
 40
0.0
  9
$CHAMFERB
 40
0.0
  9
$SKPOLY
 70
     0
  9
$TDCREATE
 40
2457075.7697729398
  9
$TDUPDATE
 40
2457075.7697729398
  9
$TDINDWG
 40
0.0000403241
  9
$TDUSRTIMER
 40
0.0000403241
  9
$USRTIMER
 70
     1
  9
$ANGBASE
 50
0.0
  9
$ANGDIR
 70
     0
  9
$PDMODE
 70
     0
  9
$PDSIZE
 40
0.0
  9
$PLINEWID
 40
0.0
  9
$COORDS
 70
     0
  9
$SPLFRAME
 70
     0
  9
$SPLINETYPE
 70
     6
  9
$SPLINESEGS
 70
     8
  9
$ATTDIA
 70
     1
  9
$ATTREQ
 70
     1
  9
$HANDLING
 70
     1
  9
$HANDSEED
  5
141
  9
$SURFTAB1
 70
     6
  9
$SURFTAB2
 70
     6
  9
$SURFTYPE
 70
     6
  9
$SURFU
 70
     6
  9
$SURFV
 70
     6
  9
$UCSNAME
  2

  9
$UCSORG
 10
0.0
 20
0.0
 30
0.0
  9
$UCSXDIR
 10
1.0
 20
0.0
 30
0.0
  9
$UCSYDIR
 10
0.0
 20
1.0
 30
0.0
  9
$PUCSNAME
  2

  9
$PUCSORG
 10
0.0
 20
0.0
 30
0.0
  9
$PUCSXDIR
 10
1.0
 20
0.0
 30
0.0
  9
$PUCSYDIR
 10
0.0
 20
1.0
 30
0.0
  9
$USERI1
 70
     0
  9
$USERI2
 70
     0
  9
$USERI3
 70
     0
  9
$USERI4
 70
     0
  9
$USERI5
 70
     0
  9
$USERR1
 40
0.0
  9
$USERR2
 40
0.0
  9
$USERR3
 40
0.0
  9
$USERR4
 40
0.0
  9
$USERR5
 40
0.0
  9
$WORLDVIEW
 70
     1
  9
$SHADEDGE
 70
     3
  9
$SHADEDIF
 70
    70
  9
$TILEMODE
 70
     1
  9
$MAXACTVP
 70
    64
  9
$PLIMCHECK
 70
     0
  9
$PEXTMIN
 10
0.0
 20
0.0
 30
0.0
  9
$PEXTMAX
 10
130.82842740758889
 20
100.8284274075889
 30
0.0
  9
$PLIMMIN
 10
0.0
 20
0.0
  9
$PLIMMAX
 10
130.82842740758889
 20
100.8284274075889
  9
$UNITMODE
 70
     0
  9
$VISRETAIN
 70
     1
  9
$PLINEGEN
 70
     0
  9
$PSLTSCALE
 70
     1
  0
ENDSEC
  0
SECTION
  2
TABLES
  0
TABLE
  2
VPORT
 70
     1
  0
VPORT
  2
*ACTIVE
 70
     0
 10
0.0
 20
0.0
 11
1.0
 21
1.0
 12
65.414213803794453
 22
50.41421380379446
 13
0.0
 23
0.0
 14
1.0
 24
1.0
 15
0.0
 25
0.0
 16
0.0
 26
0.0
 36
1.0
 17
0.0
 27
0.0
 37
0.0
 40
100.8284274075889
 41
1.297535137374779
 42
50.0
 43
0.0
 44
0.0
 50
0.0
 51
0.0
 71
     0
 72
   100
 73
     1
 74
     1
 75
     0
 76
     0
 77
     0
 78
     0
  0
ENDTAB
  0
TABLE
  2
LTYPE
 70
    46
  0
LTYPE
  2
CONTINUOUS
 70
     0
  3
Solid line
 72
    65
 73
     0
 40
0.0
  0
LTYPE
  2
BORDER
 70
     0
  3
Border __ __ . __ __ . __ __ . __ __ . __ __ .
 72
    65
 73
     6
 40
1.75
 49
0.5
 49
-0.25
 49
0.5
 49
-0.25
 49
0.0
 49
-0.25
  0
LTYPE
  2
BORDER2
 70
     0
  3
Border (.5x) __.__.__.__.__.__.__.__.__.__.__.
 72
    65
 73
     6
 40
0.875
 49
0.25
 49
-0.125
 49
0.25
 49
-0.125
 49
0.0
 49
-0.125
  0
LTYPE
  2
BORDERX2
 70
     0
  3
Border (2x) ____  ____  .  ____  ____  .  ___
 72
    65
 73
     6
 40
3.5
 49
1.0
 49
-0.5
 49
1.0
 49
-0.5
 49
0.0
 49
-0.5
  0
LTYPE
  2
CENTER
 70
     0
  3
Center ____ _ ____ _ ____ _ ____ _ ____ _ ____
 72
    65
 73
     4
 40
2.0
 49
1.25
 49
-0.25
 49
0.25
 49
-0.25
  0
LTYPE
  2
CENTER2
 70
     0
  3
Center (.5x) ___ _ ___ _ ___ _ ___ _ ___ _ ___
 72
    65
 73
     4
 40
1.125
 49
0.75
 49
-0.125
 49
0.125
 49
-0.125
  0
LTYPE
  2
CENTERX2
 70
     0
  3
Center (2x) ________  __  ________  __  _____
 72
    65
 73
     4
 40
4.0
 49
2.5
 49
-0.5
 49
0.5
 49
-0.5
  0
LTYPE
  2
DASHDOT
 70
     0
  3
Dash dot __ . __ . __ . __ . __ . __ . __ . __
 72
    65
 73
     4
 40
1.0
 49
0.5
 49
-0.25
 49
0.0
 49
-0.25
  0
LTYPE
  2
DASHDOT2
 70
     0
  3
Dash dot (.5x) _._._._._._._._._._._._._._._.
 72
    65
 73
     4
 40
0.5
 49
0.25
 49
-0.125
 49
0.0
 49
-0.125
  0
LTYPE
  2
DASHDOTX2
 70
     0
  3
Dash dot (2x) ____  .  ____  .  ____  .  ___
 72
    65
 73
     4
 40
2.0
 49
1.0
 49
-0.5
 49
0.0
 49
-0.5
  0
LTYPE
  2
DASHED
 70
     0
  3
Dashed __ __ __ __ __ __ __ __ __ __ __ __ __ _
 72
    65
 73
     2
 40
0.75
 49
0.5
 49
-0.25
  0
LTYPE
  2
DASHED2
 70
     0
  3
Dashed (.5x) _ _ _ _ _ _ _ _ _ _ _ _ _ _ _ _ _
 72
    65
 73
     2
 40
0.375
 49
0.25
 49
-0.125
  0
LTYPE
  2
DASHEDX2
 70
     0
  3
Dashed (2x) ____  ____  ____  ____  ____  ___
 72
    65
 73
     2
 40
1.5
 49
1.0
 49
-0.5
  0
LTYPE
  2
DIVIDE
 70
     0
  3
Divide ____ . . ____ . . ____ . . ____ . . ____
 72
    65
 73
     6
 40
1.25
 49
0.5
 49
-0.25
 49
0.0
 49
-0.25
 49
0.0
 49
-0.25
  0
LTYPE
  2
DIVIDE2
 70
     0
  3
Divide (.5x) __..__..__..__..__..__..__..__.._
 72
    65
 73
     6
 40
0.625
 49
0.25
 49
-0.125
 49
0.0
 49
-0.125
 49
0.0
 49
-0.125
  0
LTYPE
  2
DIVIDEX2
 70
     0
  3
Divide (2x) ________  .  .  ________  .  .  _
 72
    65
 73
     6
 40
2.5
 49
1.0
 49
-0.5
 49
0.0
 49
-0.5
 49
0.0
 49
-0.5
  0
LTYPE
  2
DOT
 70
     0
  3
Dot . . . . . . . . . . . . . . . . . . . . . .
 72
    65
 73
     2
 40
0.25
 49
0.0
 49
-0.25
  0
LTYPE
  2
DOT2
 70
     0
  3
Dot (.5x) .....................................
 72
    65
 73
     2
 40
0.125
 49
0.0
 49
-0.125
  0
LTYPE
  2
DOTX2
 70
     0
  3
Dot (2x) .  .  .  .  .  .  .  .  .  .  .  .  . 
 72
    65
 73
     2
 40
0.5
 49
0.0
 49
-0.5
  0
LTYPE
  2
HIDDEN
 70
     0
  3
Hidden __ __ __ __ __ __ __ __ __ __ __ __ __ _
 72
    65
 73
     2
 40
0.375
 49
0.25
 49
-0.125
  0
LTYPE
  2
HIDDEN2
 70
     0
  3
Hidden (.5x) _ _ _ _ _ _ _ _ _ _ _ _ _ _ _ _ _
 72
    65
 73
     2
 40
0.1875
 49
0.125
 49
-0.0625
  0
LTYPE
  2
HIDDENX2
 70
     0
  3
Hidden (2x) ____ ____ ____ ____ ____ ____ ____
 72
    65
 73
     2
 40
0.75
 49
0.5
 49
-0.25
  0
LTYPE
  2
PHANTOM
 70
     0
  3
Phantom ______  __  __  ______  __  __  ______
 72
    65
 73
     6
 40
2.5
 49
1.25
 49
-0.25
 49
0.25
 49
-0.25
 49
0.25
 49
-0.25
  0
LTYPE
  2
PHANTOM2
 70
     0
  3
Phantom (.5x) ___ _ _ ___ _ _ ___ _ _ ___ _ _
 72
    65
 73
     6
 40
1.25
 49
0.625
 49
-0.125
 49
0.125
 49
-0.125
 49
0.125
 49
-0.125
  0
LTYPE
  2
PHANTOMX2
 70
     0
  3
Phantom (2x) ____________    ____    ____   _
 72
    65
 73
     6
 40
5.0
 49
2.5
 49
-0.5
 49
0.5
 49
-0.5
 49
0.5
 49
-0.5
  0
LTYPE
  2
ACAD_ISO02W100
 70
     0
  3
ISO dash __ __ __ __ __ __ __ __ __ __ __ __ __
 72
    65
 73
     2
 40
15.0
 49
12.0
 49
-3.0
  0
LTYPE
  2
ACAD_ISO03W100
 70
     0
  3
ISO dash space __    __    __    __    __    __
 72
    65
 73
     2
 40
30.0
 49
12.0
 49
-18.0
  0
LTYPE
  2
ACAD_ISO04W100
 70
     0
  3
ISO long-dash dot ____ . ____ . ____ . ____ . _
 72
    65
 73
     4
 40
30.0
 49
24.0
 49
-3.0
 49
0.0
 49
-3.0
  0
LTYPE
  2
ACAD_ISO05W100
 70
     0
  3
ISO long-dash double-dot ____ .. ____ .. ____ .
 72
    65
 73
     6
 40
33.0
 49
24.0
 49
-3.0
 49
0.0
 49
-3.0
 49
0.0
 49
-3.0
  0
LTYPE
  2
ACAD_ISO06W100
 70
     0
  3
ISO long-dash triple-dot ____ ... ____ ... ____
 72
    65
 73
     8
 40
36.0
 49
24.0
 49
-3.0
 49
0.0
 49
-3.0
 49
0.0
 49
-3.0
 49
0.0
 49
-3.0
  0
LTYPE
  2
ACAD_ISO07W100
 70
     0
  3
ISO dot . . . . . . . . . . . . . . . . . . . .
 72
    65
 73
     2
 40
3.0
 49
0.0
 49
-3.0
  0
LTYPE
  2
ACAD_ISO08W100
 70
     0
  3
ISO long-dash short-dash ____ __ ____ __ ____ _
 72
    65
 73
     4
 40
36.0
 49
24.0
 49
-3.0
 49
6.0
 49
-3.0
  0
LTYPE
  2
ACAD_ISO09W100
 70
     0
  3
ISO long-dash double-short-dash ____ __ __ ____
 72
    65
 73
     6
 40
45.0
 49
24.0
 49
-3.0
 49
6.0
 49
-3.0
 49
6.0
 49
-3.0
  0
LTYPE
  2
ACAD_ISO10W100
 70
     0
  3
ISO dash dot __ . __ . __ . __ . __ . __ . __ .
 72
    65
 73
     4
 40
18.0
 49
12.0
 49
-3.0
 49
0.0
 49
-3.0
  0
LTYPE
  2
ACAD_ISO11W100
 70
     0
  3
ISO double-dash dot __ __ . __ __ . __ __ . __ 
 72
    65
 73
     6
 40
33.0
 49
12.0
 49
-3.0
 49
12.0
 49
-3.0
 49
0.0
 49
-3.0
  0
LTYPE
  2
ACAD_ISO12W100
 70
     0
  3
ISO dash double-dot __ . . __ . . __ . . __ . .
 72
    65
 73
     6
 40
21.0
 49
12.0
 49
-3.0
 49
0.0
 49
-3.0
 49
0.0
 49
-3.0
  0
LTYPE
  2
ACAD_ISO13W100
 70
     0
  3
ISO double-dash double-dot __ __ . . __ __ . . 
 72
    65
 73
     8
 40
36.0
 49
12.0
 49
-3.0
 49
12.0
 49
-3.0
 49
0.0
 49
-3.0
 49
0.0
 49
-3.0
  0
LTYPE
  2
ACAD_ISO14W100
 70
     0
  3
ISO dash triple-dot __ . . . __ . . . __ . . . 
 72
    65
 73
     8
 40
24.0
 49
12.0
 49
-3.0
 49
0.0
 49
-3.0
 49
0.0
 49
-3.0
 49
0.0
 49
-3.0
  0
LTYPE
  2
ACAD_ISO15W100
 70
     0
  3
ISO double-dash triple-dot __ __ . . . __ __ . 
 72
    65
 73
    10
 40
39.0
 49
12.0
 49
-3.0
 49
12.0
 49
-3.0
 49
0.0
 49
-3.0
 49
0.0
 49
-3.0
 49
0.0
 49
-3.0
  0
LTYPE
  2
FENCELINE1
 70
     0
  3
Fenceline circle ----0-----0----0-----0----0---
 72
    65
 73
     4
 40
1.45
 49
0.25
 49
-0.1
 49
-0.1
 49
1.0
  0
LTYPE
  2
FENCELINE2
 70
     0
  3
Fenceline square ----[]-----[]----[]-----[]----
 72
    65
 73
     4
 40
1.45
 49
0.25
 49
-0.1
 49
-0.1
 49
1.0
  0
LTYPE
  2
TRACKS
 70
     0
  3
Tracks -|-|-|-|-|-|-|-|-|-|-|-|-|-|-|-|-|-|-|-|
 72
    65
 73
     2
 40
0.3
 49
0.15
 49
0.15
  0
LTYPE
  2
BATTING
 70
     0
  3
Batting SSSSSSSSSSSSSSSSSSSSSSSSSSSSSSSSSSSSSSS
 72
    65
 73
     4
 40
0.4001000000000001
 49
0.0001
 49
-0.1
 49
-0.2
 49
-0.1
  0
LTYPE
  2
HOT_WATER_SUPPLY
 70
     0
  3
Hot water supply ---- HW ---- HW ---- HW ----
 72
    65
 73
     3
 40
0.9
 49
0.5
 49
-0.2
 49
-0.2
  0
LTYPE
  2
GAS_LINE
 70
     0
  3
Gas line ----GAS----GAS----GAS----GAS----GAS---
 72
    65
 73
     3
 40
0.95
 49
0.5
 49
-0.2
 49
-0.25
  0
LTYPE
  2
ZIGZAG
 70
     0
  3
Zig zag /\/\/\/\/\/\/\/\/\/\/\/\/\/\/\/\/\/\/\/
 72
    65
 73
     4
 40
0.8001000000000001
 49
0.0001
 49
-0.2
 49
-0.4
 49
-0.2
  0
ENDTAB
  0
TABLE
  2
LAYER
 70
     3
  0
LAYER
  2
0
 70
     0
 62
     7
  6
CONTINUOUS
  0
LAYER
  2
IV_INTERIOR_PROFILES
 70
     0
 62
     7
  6
CONTINUOUS
  0
LAYER
  2
IV_OUTER_PROFILE
 70
     0
 62
     7
  6
CONTINUOUS
  0
ENDTAB
  0
TABLE
  2
STYLE
 70
     3
  0
STYLE
  2
STANDARD
 70
     0
 40
0.0
 41
1.0
 50
0.0
 71
     0
 42
0.2
  3
txt
  4

  0
STYLE
  2
ANNOTATIVE
 70
     0
 40
0.0
 41
1.0
 50
0.0
 71
     0
 42
0.2
  3
txt
  4

  0
STYLE
  2

 70
     1
 40
0.0
 41
1.0
 50
0.0
 71
     0
 42
0.2
  3
ltypeshp.shx
  4

  0
ENDTAB
  0
TABLE
  2
VIEW
 70
     0
  0
ENDTAB
  0
TABLE
  2
UCS
 70
     0
  0
ENDTAB
  0
TABLE
  2
APPID
 70
     3
  0
APPID
  2
ACAD
 70
     0
  0
APPID
  2
ACADANNOTATIVE
 70
     0
  0
APPID
  2
ACAD_MLEADERVER
 70
     0
  0
ENDTAB
  0
TABLE
  2
DIMSTYLE
 70
     2
  0
DIMSTYLE
  2
STANDARD
 70
     0
  3

  4

  5

  6

  7

 40
1.0
 41
0.18
 42
0.0625
 43
0.38
 44
0.18
 45
0.0
 46
0.0
 47
0.0
 48
0.0
140
0.18
141
0.09
142
0.0
143
25.399999999999999
144
1.0
145
0.0
146
1.0
147
0.09
 71
     0
 72
     0
 73
     1
 74
     1
 75
     0
 76
     0
 77
     0
 78
     0
170
     0
171
     2
172
     0
173
     0
174
     0
175
     0
176
     0
177
     0
178
     0
  0
DIMSTYLE
  2
ANNOTATIVE
 70
     0
  3

  4

  5

  6

  7

 40
1.0
 41
0.18
 42
0.0625
 43
0.38
 44
0.18
 45
0.0
 46
0.0
 47
0.0
 48
0.0
140
0.18
141
0.09
142
0.0
143
25.399999999999999
144
1.0
145
0.0
146
1.0
147
0.09
 71
     0
 72
     0
 73
     1
 74
     1
 75
     0
 76
     0
 77
     0
 78
     0
170
     0
171
     2
172
     0
173
     0
174
     0
175
     0
176
     0
177
     0
178
     0
  0
ENDTAB
  0
ENDSEC
  0
SECTION
  2
BLOCKS
  0
BLOCK
  8
0
  2
$MODEL_SPACE
 70
     0
 10
0.0
 20
0.0
 30
0.0
  3
$MODEL_SPACE
  1

  0
ENDBLK
  5
72
  8
0
  0
BLOCK
 67
     1
  8
0
  2
$PAPER_SPACE
 70
     0
 10
0.0
 20
0.0
 30
0.0
  3
$PAPER_SPACE
  1

  0
ENDBLK
  5
6E
 67
     1
  8
0
  0
ENDSEC
  0
SECTION
  2
ENTITIES
  0
CIRCLE
  5
A8
  8
IV_INTERIOR_PROFILES
 10
107.9142138037944
 20
22.914213803794471
 30
0.0
 40
2.4999999999999969
  0
CIRCLE
  5
AA
  8
IV_INTERIOR_PROFILES
 10
22.91421380379446
 20
77.914213803794482
 30
0.0
 40
2.5000000000000009
  0
CIRCLE
  5
AB
  8
IV_INTERIOR_PROFILES
 10
22.91421380379446
 20
22.914213803794471
 30
0.0
 40
2.5
  0
CIRCLE
  5
AC
  8
IV_INTERIOR_PROFILES
 10
107.9142138037944
 20
77.914213803794482
 30
0.0
 40
2.4999999999999978
  0
CIRCLE
  5
AD
  8
IV_INTERIOR_PROFILES
 10
55.41421380379446
 20
93.414213803794468
 30
0.0
 40
2.75
  0
CIRCLE
  5
AE
  8
IV_INTERIOR_PROFILES
 10
65.414213803794453
 20
93.414213803794468
 30
0.0
 40
2.75
  0
CIRCLE
  5
AF
  8
IV_INTERIOR_PROFILES
 10
75.414213803794453
 20
93.414213803794468
 30
0.0
 40
2.75
  0
CIRCLE
  5
B0
  8
IV_INTERIOR_PROFILES
 10
55.41421380379446
 20
83.414213803794468
 30
0.0
 40
2.75
  0
CIRCLE
  5
B1
  8
IV_INTERIOR_PROFILES
 10
65.414213803794453
 20
83.414213803794468
 30
0.0
 40
2.75
  0
CIRCLE
  5
B2
  8
IV_INTERIOR_PROFILES
 10
75.414213803794453
 20
83.414213803794468
 30
0.0
 40
2.75
  0
CIRCLE
  5
B3
  8
IV_INTERIOR_PROFILES
 10
55.41421380379446
 20
73.414213803794468
 30
0.0
 40
2.75
  0
CIRCLE
  5
B4
  8
IV_INTERIOR_PROFILES
 10
65.414213803794453
 20
73.414213803794468
 30
0.0
 40
2.75
  0
CIRCLE
  5
B5
  8
IV_INTERIOR_PROFILES
 10
75.414213803794453
 20
73.414213803794468
 30
0.0
 40
2.75
  0
CIRCLE
  5
B6
  8
IV_INTERIOR_PROFILES
 10
55.41421380379446
 20
7.4142138037944783
 30
0.0
 40
2.75
  0
CIRCLE
  5
B7
  8
IV_INTERIOR_PROFILES
 10
65.414213803794453
 20
7.4142138037944783
 30
0.0
 40
2.75
  0
CIRCLE
  5
B8
  8
IV_INTERIOR_PROFILES
 10
75.414213803794453
 20
7.4142138037944783
 30
0.0
 40
2.75
  0
CIRCLE
  5
B9
  8
IV_INTERIOR_PROFILES
 10
55.41421380379446
 20
17.414213803794478
 30
0.0
 40
2.75
  0
CIRCLE
  5
BA
  8
IV_INTERIOR_PROFILES
 10
65.414213803794453
 20
17.414213803794478
 30
0.0
 40
2.75
  0
CIRCLE
  5
BB
  8
IV_INTERIOR_PROFILES
 10
75.414213803794453
 20
17.414213803794478
 30
0.0
 40
2.75
  0
CIRCLE
  5
BC
  8
IV_INTERIOR_PROFILES
 10
55.41421380379446
 20
27.414213803794478
 30
0.0
 40
2.75
  0
CIRCLE
  5
BD
  8
IV_INTERIOR_PROFILES
 10
65.414213803794453
 20
27.414213803794478
 30
0.0
 40
2.75
  0
CIRCLE
  5
BE
  8
IV_INTERIOR_PROFILES
 10
75.414213803794453
 20
27.414213803794478
 30
0.0
 40
2.75
  0
CIRCLE
  5
BF
  8
IV_INTERIOR_PROFILES
 10
100.4142138037944
 20
50.414213803794468
 30
0.0
 40
2.75
  0
CIRCLE
  5
C0
  8
IV_INTERIOR_PROFILES
 10
110.4142138037945
 20
50.414213803794468
 30
0.0
 40
2.75
  0
CIRCLE
  5
C1
  8
IV_INTERIOR_PROFILES
 10
120.4142138037945
 20
50.414213803794468
 30
0.0
 40
2.75
  0
CIRCLE
  5
C2
  8
IV_INTERIOR_PROFILES
 10
30.41421380379446
 20
50.414213803794468
 30
0.0
 40
2.75
  0
CIRCLE
  5
C3
  8
IV_INTERIOR_PROFILES
 10
20.41421380379446
 20
50.414213803794468
 30
0.0
 40
2.75
  0
CIRCLE
  5
C4
  8
IV_INTERIOR_PROFILES
 10
10.41421380379446
 20
50.414213803794468
 30
0.0
 40
2.75
  0
CIRCLE
  5
C5
  8
IV_INTERIOR_PROFILES
 10
123.9142138037945
 20
7.9142138037944667
 30
0.0
 40
2.75
  0
CIRCLE
  5
C6
  8
IV_INTERIOR_PROFILES
 10
123.9142138037945
 20
37.914213803794482
 30
0.0
 40
2.75
  0
CIRCLE
  5
C7
  8
IV_INTERIOR_PROFILES
 10
123.9142138037945
 20
62.914213803794468
 30
0.0
 40
2.75
  0
CIRCLE
  5
C8
  8
IV_INTERIOR_PROFILES
 10
123.9142138037945
 20
92.914213803794453
 30
0.0
 40
2.75
  0
CIRCLE
  5
C9
  8
IV_INTERIOR_PROFILES
 10
91.914213803794468
 20
92.914213803794453
 30
0.0
 40
2.75
  0
CIRCLE
  5
CA
  8
IV_INTERIOR_PROFILES
 10
91.914213803794468
 20
62.914213803794468
 30
0.0
 40
2.75
  0
CIRCLE
  5
CB
  8
IV_INTERIOR_PROFILES
 10
91.914213803794468
 20
37.914213803794482
 30
0.0
 40
2.75
  0
CIRCLE
  5
CC
  8
IV_INTERIOR_PROFILES
 10
91.914213803794468
 20
7.9142138037944667
 30
0.0
 40
2.75
  0
CIRCLE
  5
CD
  8
IV_INTERIOR_PROFILES
 10
38.914213803794482
 20
37.914213803794482
 30
0.0
 40
2.75
  0
CIRCLE
  5
CE
  8
IV_INTERIOR_PROFILES
 10
38.914213803794482
 20
7.9142138037944667
 30
0.0
 40
2.75
  0
CIRCLE
  5
CF
  8
IV_INTERIOR_PROFILES
 10
6.9142138037944632
 20
7.9142138037944667
 30
0.0
 40
2.75
  0
CIRCLE
  5
D0
  8
IV_INTERIOR_PROFILES
 10
6.9142138037944632
 20
37.914213803794482
 30
0.0
 40
2.75
  0
CIRCLE
  5
D1
  8
IV_INTERIOR_PROFILES
 10
75.414213803794453
 20
59.914213803794482
 30
0.0
 40
2.75
  0
CIRCLE
  5
D2
  8
IV_INTERIOR_PROFILES
 10
55.41421380379446
 20
59.914213803794482
 30
0.0
 40
2.75
  0
CIRCLE
  5
D3
  8
IV_INTERIOR_PROFILES
 10
38.914213803794482
 20
92.914213803794453
 30
0.0
 40
2.75
  0
CIRCLE
  5
D4
  8
IV_INTERIOR_PROFILES
 10
38.914213803794482
 20
62.914213803794468
 30
0.0
 40
2.75
  0
CIRCLE
  5
D5
  8
IV_INTERIOR_PROFILES
 10
6.9142138037944632
 20
62.914213803794468
 30
0.0
 40
2.75
  0
CIRCLE
  5
D6
  8
IV_INTERIOR_PROFILES
 10
6.9142138037944632
 20
92.914213803794453
 30
0.0
 40
2.75
  0
POLYLINE
  5
D8
  8
IV_OUTER_PROFILE
 66
     1
 10
0.0
 20
0.0
 30
0.0
 70
   129
  0
VERTEX
  5
D9
  8
IV_OUTER_PROFILE
 10
0.4142138037944524
 20
98.414213803794468
 30
0.0
 42
-0.4142135623730951
  0
VERTEX
  5
DA
  8
IV_OUTER_PROFILE
 10
2.4142138037944521
 20
100.4142138037944
 30
0.0
  0
VERTEX
  5
DC
  8
IV_OUTER_PROFILE
 10
128.41421380379441
 20
100.4142138037945
 30
0.0
 42
-0.4142135623730951
  0
VERTEX
  5
DD
  8
IV_OUTER_PROFILE
 10
130.41421380379441
 20
98.414213803794468
 30
0.0
  0
VERTEX
  5
DE
  8
IV_OUTER_PROFILE
 10
130.4142138037945
 20
2.41421380379446
 30
0.0
 42
-0.4142135623730951
  0
VERTEX
  5
DF
  8
IV_OUTER_PROFILE
 10
128.41421380379441
 20
0.4142138037944604
 30
0.0
  0
VERTEX
  5
E0
  8
IV_OUTER_PROFILE
 10
2.41421380379446
 20
0.4142138037944676
 30
0.0
 42
-0.4142135623730951
  0
VERTEX
  5
E1
  8
IV_OUTER_PROFILE
 10
0.4142138037944518
 20
2.41421380379446
 30
0.0
  0
VERTEX
  5
E2
  8
IV_OUTER_PROFILE
 10
0.4142138037944527
 20
98.414213803794468
 30
0.0
  0
SEQEND
  5
DB
  8
IV_OUTER_PROFILE
  0
ENDSEC
  0
EOF
